Song name
# A B C D E F G H I J K L M N O P Q R S T U V W X Y Z

Mitchel Musso - Welcome To Hollywood tab

Mitchel Musso - Welcome To Hollywood
------------------------------------

Cool song, pretty easy to play. Here's how I play it:
http://www.youtube.com/watch?v=GBFnXLQjzu8

Tuning: EADGBe



### INTRO ### 00:00 ###
e|----------------------|
B|----------------------|
G|----------------------| 2x
D|--6666666-77-6666666--|
A|----------------------|
E|----------------------|


### VERSE ### 00:07 ###
e|----------------------|    |--------------------------------------|
B|----------------------|    |--------------------------------------|
G|----------------------| 2x |--------------------------------------|
D|--6666666-77-6666666--|    |--222222222-1111111-2222222222222222--|
A|----------------------|    |--------------------------------------|
E|----------------------|    |--------------------------------------|

e|----------------------|    |-----------------------------------------|
B|----------------------|    |-----------------------------------------|
G|----------------------| 2x |-----------------------------------------|
D|--6666666-77-6666666--|    |--222222222-1111111-777--666--4----xxxx--|
A|----------------------|    |--------------------777--666--4----xxxx--|
E|----------------------|    |--------------------555--444--2----xxxx--|


### CHORUS 1 ### 00:35 ###
e|--------------------------|    |---------------------------|
B|--------------------------|    |---------------------------|
G|--6---------9-9-----------| 3x |--6---------9-9------------|
D|--6---7-7---9-9---9-9--9--|    |--6---7-7---9-9------------|
A|--4---7-7---7-7---9-9--9--|    |--4---7-7---7-7------------|
E|------5-5---------7-7--7--|    |------5-5------------------|



### VERSE ### 00:49 ###



### CHORUS 2 ### 01:18 ###
e|--------------------------|
B|--------------------------|
G|--6---------9-9-----------| 8x
D|--6---7-7---9-9---9-9--9--|
A|--4---7-7---7-7---9-9--9--|
E|------5-5---------7-7--7--|


### INTERLUDE ### 01:46 ###
e|-----------------------|    |---------------------|
B|-----------------------|    |---------------------|
G|-----------------------| 3x |---------------------|
D|-----------------------|    |---------------------|
A|--4444------7777-------|    |--4444------7-77-----|
E|-------5555------7777--|    |-------5555------77--|


### CHORUS 2 ### 01:18 ###
Tap to rate this tab
# A B C D E F G H I J K L M N O P Q R S T U V W X Y Z