Song name
# A B C D E F G H I J K L M N O P Q R S T U V W X Y Z

Mitchel Musso - Do It Up tab

----------------------------------------------------------------------------
			            Do It Up - Mitchel Musso
----------------------------------------------------------------------------

Tabbed by:XxGuitarZer0xX

Email:Spongebobs400s@hotmail.com

Tuning:Drop D



Intro
e|-------------------------------------------|
B|-------------------------------------------|
G|-8b10r8-6h8p6-------6-8p6-8b10r8-6h8p6-----|
D|--------------8-6-8--------------------6-8-|
A|-------------------------------------------|
D|-------------------------------------------|




Verse - Part 1
e|-------------------------------------|
B|-------------------------------------|
G|-33333333-33333333-33333333-66666666-|
D|-33333333-33333333-33333333-66666666-| Repeat once more
A|-11111111-00000000-11111111-44444444-|
D|-------------------------------------|
PM ******** ******** ******** ********

Verse Part 2
e|----------------------------------------------------------|
B|----------------------------------------------------------|
G|-33333333-33333333-------------------33333333-33333333-3~-|
D|-33333333-33333333-44444444-33333333-33333333-33333333-3~-|
A|-11111111-00000000-44444444-33333333-11111111-00000000-1~-|
D|-------------------44444444-33333333----------------------|
PM ******** ******** ******** ******** ******** ********




Pre-Chorus
e|--------------------------|
B|--------------------------|
G|-8b10r8-6h8p6-------6-8p6-|
D|--------------8-6-8-------|
A|--------------------------|
D|--------------------------|




Chorus - Part 1
e|-------------------------------------|
B|-------------------------------------|
G|-------------------66666666----------|
D|-88888888-44444444-66666666-66666666-| Repeat once more
A|-88888888-44444444-44444444-66666666-|
D|-88888888-44444444----------66666666-|

Chorus - Part 2
e|--------------------------------------------------------|
B|--------------------------------------------------------|
G|-------------------66666666-----------------------------|
D|-11111111-66666666-66666666-44444444444444444-66666666~-|
A|-11111111-66666666-44444444-44444444444444444-66666666~-|
D|-11111111-66666666----------44444444444444444-66666666~-|




Post chorus
e|--------------------------|
B|--------------------------|
G|-8b10r8-6h8p6-------6-8p6-|
D|--------------8-6-8-------|
A|--------------------------|
D|--------------------------|





Verse - Part 1
e|-------------------------------------|
B|-------------------------------------|
G|-33333333-33333333-33333333-66666666-|
D|-33333333-33333333-33333333-66666666-| Repeat once more
A|-11111111-00000000-11111111-44444444-|
D|-------------------------------------|
PM ******** ******** ******** ********

Verse Part 2
e|----------------------------------------------------------|
B|----------------------------------------------------------|
G|-33333333-33333333-------------------33333333-33333333-3~-|
D|-33333333-33333333-44444444-33333333-33333333-33333333-3~-|
A|-11111111-00000000-44444444-33333333-11111111-00000000-1~-|
D|-------------------44444444-33333333----------------------|
PM ******** ******** ******** ******** ******** ********




Pre-Chorus
e|--------------------------|
B|--------------------------|
G|-8b10r8-6h8p6-------6-8p6-|
D|--------------8-6-8-------|
A|--------------------------|
D|--------------------------|




Chorus - Part 1
e|-------------------------------------|
B|-------------------------------------|
G|-------------------66666666----------|
D|-88888888-44444444-66666666-66666666-| Repeat once more
A|-88888888-44444444-44444444-66666666-|
D|-88888888-44444444----------66666666-|

Chorus - Part 2
e|--------------------------------------------------------|
B|--------------------------------------------------------|
G|-------------------66666666-----------------------------|
D|-11111111-66666666-66666666-44444444444444444-66666666~-|
A|-11111111-66666666-44444444-44444444444444444-66666666~-|
D|-11111111-66666666----------44444444444444444-66666666~-|




Bridge - Part 1
e|--------------------------------------------|
B|--------------------------------------------|
G|--------------------6~~~----6~~~----6~~~----|
D|-4~~-6~-8~-4~-6~-8~-6~~~666-6~~~666-6~~~666-|
A|-4~~-6~-8~-4~-6~-8~-4~~~666-4~~~666-4~~~666-|
D|-4~~-6~-8~-4~-6~-8~-----666-----666-----666-|

Bridge - Part 2 (palm mute all of this)
e|---------------------------------------------------------------------------|
B|---------------------------------------------------------------------------|
G|---------------------------------------------------------------------------|
D|---------------------------------4-3--------------------------(PICK SLIDE)-|
A|-----4-6-----4-6-----4-6-----4-6-----4-6-----4-6-----4-6-----4(PICK SLIDE)-|
D|-6-6-----6-6-----6-6-----6-6-------------6-6-----6-6-----6-6--(PICK SLIDE)-|
PM * * * * * * * * * * * * * * * * * * * * * * * * * * * * * * * 



SOLO 1 - Part 1
e|---------------------------------------------------------------------------|
B|---------------------------------------------------------------------------|
G|----6h8-8b10r8-6h8----6h8-8b10r8-6h8---6h8-8b10r8-6h8-8b10r8-6h8-8b10r8-6h8|
D|-6h8---------------6h8--------------6h8------------------------------------|
A|---------------------------------------------------------------------------|
D|---------------------------------------------------------------------------|

Solo 1 - Part 2
e|----------------------------------------------------------------------------------|
B|-------------------------------------------------------------------------------18~|
G|----6h8-8b10r8-6h8----6h8-8b10r8-6h8----------6666-8888-101010-13131313-151515----|
D|-6h8---------------6h8--------------6666-8888-------------------------------------|
A|----------------------------------------------------------------------------------|
D|----------------------------------------------------------------------------------|




Chorus - Part 1
e|-------------------------------------|
B|-------------------------------------|
G|-------------------66666666----------|
D|-88888888-44444444-66666666-66666666-| Repeat once more
A|-88888888-44444444-44444444-66666666-|
D|-88888888-44444444----------66666666-|

Chorus - Part 2
e|--------------------------------------------------------|
B|--------------------------------------------------------|
G|-------------------66666666-----------------------------|
D|-11111111-66666666-66666666-44444444444444444-66666666~-|
A|-11111111-66666666-44444444-44444444444444444-66666666~-|
D|-11111111-66666666----------44444444444444444-66666666~-|



SOLO 2 
e|---------------------------------------------------------------------------|
B|---------------------------------------------------------------------------|
G|----6h8-8b10r8-6h8----6h8-8b10r8-6h8---6h8-8b10r8-6h8-8b10r8-6h8-8b10r8-6h8|
D|-6h8---------------6h8--------------6h8------------------------------------| Repeat once more
A|---------------------------------------------------------------------------|
D|---------------------------------------------------------------------------|




Outro
e|----------------------------------------------------------|
B|----------------------------------------------------------|
G|-------------------66666666-------------------------------|
D|-11111111-66666666-66666666-44444444444444444-66666666-8~-|
A|-11111111-66666666-44444444-44444444444444444-66666666-8~-|
D|-11111111-66666666----------44444444444444444-66666666-8~-|
Tap to rate this tab
 
# A B C D E F G H I J K L M N O P Q R S T U V W X Y Z