Song name
# A B C D E F G H I J K L M N O P Q R S T U V W X Y Z

Mitchell Grey - Coyoter Acoustic tab

Link to the version I tabbed youtube(dot)com/watch?v=7rzD6hiFYYA

Official website of Mitchell Grey http://www.mitchellgreymusic.com/

Capo 2nd fret


INTRO,VERSE 1 and OUTRO


Ascend along with our satellite...


e|-------------------------------|
B|---0-------2--------1----------|
G|-----6-------2--------2--------|
D|-------4-------0--------0------|
A|-------------------------------|
E|-------------------------------|
        x4         x2      x2

  
CHORUS


Howlin out I've been Coyoter...

e|--0----0----0------------------|
B|--0----0----0------------------|
G|--7----2----1------------------|
D|--7----2----2------------------|
A|--5----0----2------------------|
E|--x----x----0------------------|

    x4   X2   X2


VERSE 2 


The air out here keeps me in motion, its flowin...


e|-------------------------------|
B|---0-------2--------1----------|
G|-----6-------2--------2--------|
D|-------4-------0--------0------|
A|-------------------------------|
E|-------------------------------|
        x4         x
Tap to rate this tab
 
# A B C D E F G H I J K L M N O P Q R S T U V W X Y Z