Guitaretab - guitar tabs
Song name
# A B C D E F G H I J K L M N O P Q R S T U V W X Y Z

Mitchell Joni - This Flight Tonight tab

**not exact number of notes**

Intro :00
G --------------------------------||
D --------------------------------||
A --------------------------------||
E -3-333-333-333-333-333-3~--1~---||

Verse 1 :08                              x4                     x3
G -----------------------|-----------------|----------------------||
D .----------------------|.---------------.|---------------------.||  
A .----------------------|.---------------.|---------------------.|| 
E -3-333-333-333-333-333-|-3/8-888-888-888-|-3-333-333-333-333-333||  

Chorus 1:20
G ----------------------------------------------------------------||
D ----------------------------------------------------------------||
A -------------------------------------3-333-333-333-3------------||
E -333-333-333-333-333-1-111-111-111-11----------------3-333-333--||

G --------------------------------||
D --------------------------------||
A --------------------------------||
E -333-333-333-333-333-333-3~--1~-||
[ Tab from: http://www.guitaretab.com/m/mitchell-joni/12679.html ]
Verse 2 2:09
G ----------------------------------------------------------------||
D ----------------------------------------------------------------||
A ------------------------------------7---8---8-7-----7---8---8-10||
E -3-333-333-333-333-333-8--8--8--8-8---8---8-----8-8---8---8-----||

G ----------------------------------------------------------------||
D -----------------10-10-8-8-7-7----------------------------------||
A -----7---8---8-7---------------7-10-----------------------------||
E -8-8---8---8------------------------3-333-333-333-333-333-333---||
                 x4
G -----------------|------------------------------||
D .---------------.|------------------------------||
A .---------------.|------------------------------||
E -3/8-888-888-888-|-3-333-333-333-333-333-333-333||

Chorus 2:45

Outro 3:03                                         fade...........
G ----------------------------------------------------------------||
D ----------------------------------------------------------------||
A -----------------3-333-333-333-3--------------------------------||
E -1-111-111-111-11---------------3-333-333-333-3~-3--333-333-333-||
Related for This Flight Tonight tab
Advertisement will be closed in 10 seconds