Song name
# A B C D E F G H I J K L M N O P Q R S T U V W X Y Z

Mitchell Kim - Patio Lanterns tab

PATIO LANTERNS

     Asus  A Asus       F#m   E
-------------------------------------------|
--------3----2-----3-----------------------|
--------2----2-----2--------2----4---------|
--------2----2-----2--------4----2---------|
-0-0----0----0-----0-----------------------|
-------------------------------------------|


     Asus  A Asus       F#m   E
-------------------------------------------|
--------3----2-----3-----------------------|
--------2----2-----2--------2----4---------|
--------2----2-----2--------4----2---------|
-0-0----0----0-----0-----------------------|
-------------------------------------------|

Our house had the biggest patio
     Asus  A Asus       F#m   E
-------------------------------------------|
--------3----2-----3-----------------------|
--------2----2-----2--------2----4---------|
--------2----2-----2--------4----2---------|
-0-0----0----0-----0-----------------------|
-------------------------------------------|

Our house had all the summer shade We had patio lanterns
     Asus  A Asus       F#m   E     D      Dsus   D
--------------------------------------2-----3-----2----|
--------3----2-----3------------------3-----3-----3----|
--------2----2-----2--------2----4----2-----2-----2----|
--------2----2-----2--------4----2----0-----0-----0----|
-0-0----0----0-----0-----------------------------------|
-------------------------------------------------------|

     Asus  A Asus       F#m   E
-------------------------------------------|
--------3----2-----3-----------------------|
--------2----2-----2--------2----4---------|
--------2----2-----2--------4----2---------|
-0-0----0----0-----0-----------------------|
-------------------------------------------|

I'd spend half the night making lemonade
     Asus  A Asus       F#m   E
-------------------------------------------|
--------3----2-----3-----------------------|
--------2----2-----2--------2----4---------|
--------2----2-----2--------4----2---------|
-0-0----0----0-----0-----------------------|
-------------------------------------------|

Which we drank a lot 'cause we were all so shy
     Asus  A Asus       F#m   E     D      Dsus   D
---------------------------------------2-----3----2----|
--------3----2-----3-------------------3-----3----3----|
--------2----2-----2--------2----4-----2-----2----2----|
--------2----2-----2--------4----2-----0-----0----0----|
-0-0----0----0-----0-----------------------------------|
-------------------------------------------------------|

Shy and nervous
     Asus  A Asus       F#m   E
-------------------------------------------|
--------3----2-----3-----------------------|
--------2----2-----2--------2----4---------|
--------2----2-----2--------4----2---------|
-0-0----0----0-----0-----------------------|
-------------------------------------------|
E
Who was gonna be
D
Who would be the first to dance
E
Who was gonna be
D
Who would be the first to kiss Under those patio lanterns
     Asus  A Asus       F#m   E
---------------------------------------------|
--------3----2-----3-------------------------|
--------2----2-----2--------2----4-----------|
--------2----2-----2--------4----2-----------|
-0-0----0----0-----0-------------------------|
---------------------------------------------|

     Asus  A      A
------------------------------------------|
--------3----2-----2----------------------|
--------2----2-----2----------------------|
--------2----2-----2----------------------|
-0-0----0----0-----0----------------------|
------------------------------------------|
E
Those patio lanterns
               D            A
They were the stars in the sky
E
Those patio lanterns
D                A
Lighting up our lives
E
Those patio lanterns
              D             A
They were the stars in the sky
E
Those patio lanterns
                 D pause
Lighting up our lives Oh those patio lanterns

     Asus  A Asus       F#m   E
-------------------------------------------|
--------3----2-----3-----------------------|
--------2----2-----2--------2----4---------|
--------2----2-----2--------4----2---------|
-0-0----0----0-----0-----------------------|
-------------------------------------------|

     Asus  A Asus       F#m   E
-------------------------------------------|
--------3----2-----3-----------------------|
--------2----2-----2--------2----4---------|
--------2----2-----2--------4----2---------|
-0-0----0----0-----0-----------------------|
-------------------------------------------|

And i was stuck on Joy (that was her name)
     Asus  A Asus       F#m   E
-------------------------------------------|
--------3----2-----3-----------------------|
--------2----2-----2--------2----4---------|
--------2----2-----2--------4----2---------|
-0-0----0----0-----0-----------------------|
-------------------------------------------|

We didn't talk much  She was a nervous girl
     Asus  A Asus       F#m   E     D      Dsus   D
---------------------------------------2-----3-----2--|
--------3----2-----3-------------------3-----3-----3--|
--------2----2-----2--------2----4-----2-----2-----2--|
--------2----2-----2--------4----2-----0-----0-----0--|
-0-0----0----0-----0----------------------------------|
------------------------------------------------------|

I was a nervous boy
     Asus  A Asus       F#m   E
-------------------------------------------|
--------3----2-----3-----------------------|
--------2----2-----2--------2----4---------|
--------2----2-----2--------4----2---------|
-0-0----0----0-----0-----------------------|
-------------------------------------------|

We stuck together like glue on glue
     Asus  A Asus       F#m   E
-------------------------------------------|
--------3----2-----3-----------------------|
--------2----2-----2--------2----4---------|
--------2----2-----2--------4----2---------|
-0-0----0----0-----0-----------------------|
-------------------------------------------|

Dancing  an old song Bobby vinton's blue on blue
     Asus  A Asus       F#m   E     D      Dsus   D
---------------------------------------2-----3-----2--|
--------3----2-----3-------------------3-----3-----3--|
--------2----2-----2--------2----4-----2-----2-----2--|
--------2----2-----2--------4----2-----0-----0-----0--|
-0-0----0----0-----0----------------------------------|
------------------------------------------------------|

Heartache on heartache ,
     Asus  A Asus       F#m   E
------------------------------------------|
--------3----2-----3----------------------|
--------2----2-----2--------2----4--------|
--------2----2-----2--------4----2--------|
-0-0----0----0-----0----------------------|
------------------------------------------|

E
Who was gonna be
D
Who would be the first to dance
E
Who was gonna be
D
Who would be the first to kiss Under those patio lanterns
     Asus  A Asus       F#m   E
-------------------------------------------|
--------3----2-----3-----------------------|
--------2----2-----2--------2----4---------|
--------2----2-----2--------4----2---------|
-0-0----0----0-----0-----------------------|
-------------------------------------------|

     Asus  A      A
------------------------------------------|
--------3----2-----2----------------------|
--------2----2-----2----------------------|
--------2----2-----2----------------------|
-0-0----0----0-----0----------------------|
------------------------------------------|
E
Those patio lanterns
               D            A
They were the stars in the sky
E
Those patio lanterns
D                A
Lighting up our lives
E
Those patio lanterns
               D            A
They were the stars in the sky
E
Those patio lanterns
                            D pause
Lighting up our lives Oh those patio lanterns

       Asus  A Asus       F#m
-------------------------------------------|
--------3----2-----3-----------------------|
--------2----2-----2--------2----4---------|
--------2----2-----2--------4----2---------|
-0-0----0----0-----0-----------------------|
-------------------------------------------|

     Asus  A Asus       F#m   E
-------------------------------------------|
--------3----2-----3-----------------------|
--------2----2-----2--------2----4---------|
--------2----2-----2--------4----2---------|
-0-0----0----0-----0-----------------------|
-------------------------------------------|

Repeat and fade
Tap to rate this tab
 
# A B C D E F G H I J K L M N O P Q R S T U V W X Y Z