Song name
# A B C D E F G H I J K L M N O P Q R S T U V W X Y Z

Mixelpricks - First Thing tab

Band: Mixelpricks
song: The First Thing

Tabber: John Cukras
email: riffreaper@yahoo.com

tuning: normal

Riff 1:
E-------------------------------|
B-------------------------------|
G-------------------------------|
D-------------------------------|
A-7-77-7777-5-3-33-3333-5-------|
E-5-55-5555-3-1-11-1111-3 x's 2-|

Riff 2:
E-------------------------------------------------|
B-------------------------------------------------|
G-------------------------------------------------|
D---------------------------5555555-3333333-------|
A-7777777-3333333-5-7777777-3333333-1111111-------|
E-5555555-1111111-3-5555555---------------- x's 2-|

Riff 3:
E-------------------------|
B-------------------------|
G-------------------------|
D----------5-555-55-------|
A-7-777-77-3-333-33-------|
E-5-555-55--------- x's 2-|

Riff 1

Riff 2

Riff 3 x's 4

Riff 2 once

Riff 3 x's 4

Riff 4:
E-------------------------|
B-------------------------|
G-------------------------|
D-------------------------|
A-777777-5-333333-5-------|
E-555555-3-111111-3 x's 2-|

Riff 1 x's 2

Riff 3 x's 4

Riff 1
Tap to rate this tab
 
# A B C D E F G H I J K L M N O P Q R S T U V W X Y Z