Song name
# A B C D E F G H I J K L M N O P Q R S T U V W X Y Z

Mixtapes - Soups Whatever tab

-------------------------------------------------------------------------------
			     MIXTAPES - Soups Whatever
-------------------------------------------------------------------------------
Tabbed by: brad5992
Email: cheapxshots@gmail.com

Tuning: Standard

This is the version of Soups Whatever from "A Short Collection of Short Songs"

http://www.mixtapesohio.com/

INTRO:

e|-------------------------------------------------|
B|-------------------------------------------------|
G|-------------6--6--6-6-6-------------------------|
D|-2--2--2-2-2-6--6--6-6-6-2--2--2-2-2-6--6--6-6-6-|
A|-2--2--2-2-2-4--4--4-4-4-2--2--2-2-2-6--6--6-6-6-|
E|-0--0--0-0-0-------------0--0--0-0-0-4--4--4-4-4-|

e|-------------------------------------------------|
B|-------------------------------------------------|
G|-------------4--4--4-4-4-------------------------|
D|-2--2--2-2-2-4--4--4-4-4-7--7--7-7-7-7--7--7-7-7-|
A|-2--2--2-2-2-2--2--2-2-2-7--7--7-7-7-7--7--7-7-7-|
E|-0--0--0-0-0-------------5--5--5-5-5-5--5--5-5-5-|

INTRO Lead:

e|-------------------------------------------------|
B|-10-9-7-9---10-9--7--5---10-9-7-9-7---4---5------|
G|-------------------------------------------------|
D|-------------------------------------------------|
A|-------------------------------------------------|
E|-------------------------------------------------|

VERSE:

  We talk a lot of shit...
e|-------------------------------------------------|
B|-------------------------------------------------|
G|-------------6--6--6-6-6-------------------------|
D|-2--2--2-2-2-6--6--6-6-6-6--6--6-6-6-7--7--7-7-7-|  x4
A|-2--2--2-2-2-4--4--4-4-4-6--6--6-6-6-7--7--7-7-7-|
E|-0--0--0-0-0-------------4--4--4-4-4-5--5--5-5-5-|

  In circles I guess, oh yeah
e|-------------------------------------------------|
B|-------------------------------------------------|
G|-------------------------------------------------|
D|-4-------------------2------------------2-2-2-2--|
A|-4-------------------2------------------2-2-2-2--|
E|-2-------------------0------------------0-0-0-0--|

  I used to hang out more...
e|-------------------------------------------------|
B|-------------------------------------------------|
G|-------------6--6--6-6-6-------------------------|
D|-2--2--2-2-2-6--6--6-6-6-6--6--6-6-6-7--7--7-7-7-| x4
A|-2--2--2-2-2-4--4--4-4-4-6--6--6-6-6-7--7--7-7-7-|
E|-0--0--0-0-0-------------4--4--4-4-4-5--5--5-5-5-|

CHORUS:
  I swear that I... 
e|-------------------------------------------------|
B|-------------------------------------------------|
G|-------------2--2--2-2-2-4--4--4-4-4-4--4--4-4-4-|
D|-2--2--2-2-2-2--2--2-2-2-4--4--4-4-4-4--4--4-4-4-| x4
A|-2--2--2-2-2-0--0--0-0-0-2--2--2-2-2-2--2--2-2-2-|
E|-0--0--0-0-0-------------------------------------|

INTRO x1
VERSE x4
CHORUS x4

End On
e|----|
B|----|
G|----|
D|-2--|
A|-2--|
E|-0--|
Tap to rate this tab
# A B C D E F G H I J K L M N O P Q R S T U V W X Y Z