Song name
# A B C D E F G H I J K L M N O P Q R S T U V W X Y Z

Mixtapes - Seven Mile tab

Band: Mixtapes
Song: Seven Mile
Album: Even on the Worst Nights


Palm Muted
e|-------------------------------------------------|
B|-------------------------------------------------|
G|---4-2-2-----------------------------------------|
D|-2-4-2-2-----------------------------------------|  x8
A|-2-2-0-0-----------------------------------------|
E|-0-----------------------------------------------|

Palm Muted
e|-------------------------------------------------|
B|-------------------------------------------------|
G|-4-2---------------------------------------------|
D|-4-2-2-2-----------------------------------------|  x4
A|-2-0-2-2-----------------------------------------|
E|-----0-0-----------------------------------------|

Outro
e|-------------------------------------------------|
B|-------------------------------------------------|
G|-4-2-9-------------------------------------------|
D|-4-2-9-------------------------------------------|
A|-2-0-7-------------------------------------------|
E|-------------------------------------------------|
Tap to rate this tab
# A B C D E F G H I J K L M N O P Q R S T U V W X Y Z