Song name
# A B C D E F G H I J K L M N O P Q R S T U V W X Y Z

Mixtapes - Elevator Days Acoustic tab

Mixtapes
Elevator Days (Acoustic)
Ordinary Silence

Based on:
http://www.youtube.com/watch?v=XfG8JxJUyNI

Guitar 1: Ryan Rockwell
Intro:
E-4-7-9----4-7-9-----|
B-------7--------7-5-|
G--------------------|
D--------------------|
A------(4x)----------|
E--------------------|

Verse:
E A B A 2X

Pre-Chorus:
E-------------------------------|
B-------------------------------|
G-8-9-8-9-6-8-6-8-4-6-4-6-2-4-2-|
D-------------------------------|
A-------------------------------|
E-------------------------------|

And other nights where I had...
A B E E 2X

Cause recklessly...
A C# E

Chorus:
E A B A 2X

Post-Chorus:
E-------------|
B-------------|
G-------------|
D--6-7--9-11--|
A-------------|
E-------------|

And other nights where I had...
A B E E 2X

Solo:
E-4-7-9-------4-7-9------12-11-12-11-12-11-12-11----------------------|
B-------7-7--7------7-5--------------------------12-12-12-12-12-12-12-|
G---------------------------------------------------------------------|
D---------------------------------------------------------------------|
A---------------------------------------------------------------------|
E---------------------------------------------------------------------|

E-12-14-16-14-12-----|-------12-14-16----12-14-16-21-21-21-21-21-|
B-----------------14-|-14-14----------14-------------------------|
G--------------------|-------------------------------------------|
D------(2X)----------|-------------------------------------------|
A--------------------|-------------------------------------------|
E--------------------|-------------------------------------------|

E



Guitar 2: Maura Weaver
Intro/Verse: I'm not discussing this now...
2nd time palm muted
E--(4x)--
B---------|
G-9-------|
D-9-7-9-7-|
A-7-7-9-7-|
E---5-7-5-|

Pre-Chorus: And other nights where I had...
E-(16x)-|--------(2x)---------|
B-------|---------------------|
G---9---|-----99------99------|
D---9---|-7-9-99-6976-99-6976-|
A---7---|-7-9-77------77------|
E-------|-5-7-----------------|

This whole discussion and talk
3 & 4th time palm muted
E--(4x)--
B---------|
G-9-------|
D-9-7-9-7-|
A-7-7-9-7-|
E---5-7-5-|

And other nights where I had...
E--(2x)--
B---------|
G-----9-9-|
D-7-9-9-9-|
A-7-9-7-7-|
E-5-7-----|

Solo...     I'm really working on me
E--(2x)---|----|
B---------|----|
G-9-------|-9~-|
D-9-7-9-7-|-9~-|
A-7-7-9-7-|-7~-|
E---5-7-5-|----|

Questions?
Email at cory.roesch@yahoo.com
Tap to rate this tab
# A B C D E F G H I J K L M N O P Q R S T U V W X Y Z