Song name
# A B C D E F G H I J K L M N O P Q R S T U V W X Y Z

Mixtapes - You Look Like Springtime tab

Mixtapes
You Look Like Springtime
Ordinary Silence

Verse:
E---(4x)--|---(4x)---|
B---------|-----10---|
G-----6---|---7----7-|
D---7---7-|-0--------|
A-0-------|----------|
E---------|----------|

Chorus:
E-------(3x)--------|-------------|--------(3x)--------|----------|
B-------------------|-------------|--------------------|----------|
G----------77777777-|----------7~-|-----------7-7-7-xx-|----------|
D-22222222-77777777-|-22222222-7~-|-7-7-7-xx--7-7-7-xx-|-77777777-|
A-22222222-55555555-|-22222222-5~-|-7-7-7-xx--5-5-5-xx-|-77777777-|
E-00000000----------|-00000000----|-5-5-5-xx-----------|-55555555-|

Verse
Chorus

Break:
E-----------------(2x)----------------|----|----(4x)-----|
B-------------------------------------|----|-------------|
G-------------------77777777----------|----|-------7~----|
D-77777777-44444444-77777777-22222222-|-7~-|-7~-4~-7~-2~-|
A-77777777-44444444-55555555-22222222-|-7~-|-7~-4~-5~-2~-|
E-55555555-22222222----------00000000-|-5~-|-5~-2~----0~-|

Chorus

Questions?
Email at cory.roesch@yahoo.com
Tap to rate this tab
# A B C D E F G H I J K L M N O P Q R S T U V W X Y Z