Song name
# A B C D E F G H I J K L M N O P Q R S T U V W X Y Z

Mixtwitch - Muddled tab

--------------------------------------------------------------------------------------------
This song is by the Irish rock band Mixtwitch.
It is the first song on the album "Funny Cause It's True". They are surely
the best band in the world. Check out www.mixtwitch.com .
--------------------------------------------------------------------------------------------
Mixtwitch : Muddled


Chords: E (x7999x)
        B (x2444x)
        A (x0222x)
        G# (or Ab) (x11,13,13,13x)
        D (10,12,12,xxx)


 Intro
 E,B,A - E,B,A - E,B,A,B          (Accoustic)

 Intro 2


------------------------?----------------------------------------------|
------------------------?----------------------------------------------|
------------------------?----------------------------------------------|
--2-2--6-6--11-11--9-9--?---2-2--6-6--7-7--9-9-------------------------|
--2-2--4-4--11-11--9-9--?---2-2--4-4--7-7--9-9-------------------------|
--0-0--4-4--9--9---7-7--?---0-0--4-4--5-5--7-7-------------------------|

 Sick Riff


-----------------------------------------------------------------------|
-----------------------------------------------------------------------|
--13-13/11-11-/13-13-/9--11--------------------------------------------|
--xx-xx--xx-xx--xx-xx-x-xx---------------------------------------------|
--11-11/9---9-/11-11-/7--9---------------------------------------------|
-----------------------------------------------------------------------|

 Verse
     E      G#      Cm      G#
-----------------------------------------------------------------------|
-----------------------------------------------------------------------|
----9-9---13-13-----------13-13----------------------------------------|
----9-9---13-13---11-11---13-13----------------------------------------|
----7-7---11-11---11-11---11-11----------------------------------------|
------------------9--9-------------------------------------------------|
    x4      x4     x4       x4

 Chorus
     E                    G#
    Staring at the ceiling
                A              B
    Wondering will this ever end?
     D         A
    This interrogation
     B         B
    of the same old bitter end
     D         A
    my enemy's a pleasent friend
     B         G
    not far behind the rest


 Bridge
    E  B  Cm  A  B x2

      Guatar 2 plays "sick riff"


 Solo

Guatar 1 plays    E  B  A   x4

Guatar 2 plays

--------------?-------------?--------------?-----------------------|
--------------?-------------?--------------?-----------------------|
--9-/-8-/-9-/-?-13-/-11-/-9-?-13-/-16-/-14-?-14-/-9--/-11----------|
--x-/-x-/-x-/-?-x--/-x--/-x-?--x-/--x-/-x--?--x-/-x--/-x-----------|
--7-/-6-/-7-/ ?-11-/-9--/-7-?-11-/-14-/-12-?-12-/-11-/-9-----------|
--------------?-------------?--------------?-----------------------|

 Chorus

 Then Intro (Accoustic)

 Chorus

 Then Sick Riff

                                         Ag?s sin ?.
--------------------------------------------------------------------------


You can e-mail me at conor20_ie@yahoo.com.
Conor Kelly, Ireland.
Tap to rate this tab
# A B C D E F G H I J K L M N O P Q R S T U V W X Y Z