Song name
# A B C D E F G H I J K L M N O P Q R S T U V W X Y Z

Miyavi - Hit The Road Jack tab

I did not make this tab. I found it on this link:
http://community.livejournal.com/jrock_tabs/133562.html?thread=714170#t714170
All creds to him/her :)



intro
C#||----------9-----------9---------9-----------4---||
G#||----------9-----------9---------9-----------5---||
E ||----------9-----------9---------9-----------6--*||3x
B ||-11-11---------9-9-------7-7---------6-6-------*||
F#||-11-11---------9-9-------7-7---------6-6--------||
C#||--9--9---------7-7-------5-5---------4-4--------||



----------9-----------9--10-----9-----------|
----------9-----------9---9-----8-----------|
----------9-----------9--11----10-----------|
-11-11---------9-9-------12----11-----------|
-11-11---------9-9--------------------------|
--9--9---------7-7--------------------------|


main riff
|-----------------------------------------------|
|-----------------------------------------------|
|*-----------------8--(x)-(x)--6--(x)-(x)--5----|
|*--11---(x)--(x)--9--(x)-(x)--7--(x)-(x)--6----|
|---11---(x)--(x)--9--(x)-(x)--7--(x)-(x)--6----|
|----9---(x)--(x)--7--(x)-(x)--5--(x)-(x)--4----|



-----------------------------------------------------||----|----||
-----------------------------------------------------||----|----||
-----------------8--(x)-(x)--6--(x)-(x)--5--5-5-----*||----|----||
--11---(x)--(x)--9--(x)-(x)--7--(x)-(x)--6--6-6-----*||----|----||
--11---(x)--(x)--9--(x)-(x)--7--(x)-(x)--6--6-6------||----|----||
---9---(x)--(x)--7--(x)-(x)--5--(x)-(x)--4--4-4------||----|----||
Tap to rate this tab
# A B C D E F G H I J K L M N O P Q R S T U V W X Y Z