Song name
# A B C D E F G H I J K L M N O P Q R S T U V W X Y Z

Miyavi - Freedom Fighters tab

Tuning: Standard

It's not 100% accurate because I've never tabbed anything before, 
but the progression is definitely right. 
Message me with comments and other things. 
Especially if you figure out more of the song.

e|---------------------------------------------------------------------------|
B|---------------------------------------------------------------------------|
G|-------------------5------5------5--6------6------6--9------9------9-------|
D|-2------2------2---5------5------5--6------6------6--9------9------9-------|
A|-2------2------2---3-3333-3-3333-3--4-4444-4-4444-4--7-7777-7-7777-7-------|
E|-0-0000-0-0000-0-----------------------------------------------------------|

e|---------------------------------------------------------------------------|
B|---------------------------------------------------------------------------|
G|-------------------5------5------5--6------6------6--6------6------6-------|
D|-2------2------2---5------5------5--6------6------6--6------6------6-------|
A|-2------2------2---3-3333-3-3333-3--4-4444-4-4444-4--4-4444-4-4444-4-------|
E|-0-0000-0-0000-0-----------------------------------------------------------|


e|---------------------------------------------------------------------------|
B|---------------------------------------------------------------------------|
G|-------------------5------5------5--6------6------6--9------9------9-------|
D|-2------2------2---5------5------5--6------6------6--9------9------9-------|
A|-2------2------2---3-3333-3-3333-3--4-4444-4-4444-4--7-7777-7-7777-7-------|
E|-0-0000-0-0000-0-----------------------------------------------------------|
                                              Hold the last note out
e|---------------------------------------------------------------------------|
B|---------------------------------------------------------------------------|
G|-------------------5------5------5--6------6------6--6------6------6-------|
D|-2------2------2---5------5------5--6------6------6--6------6------6-------|
A|-2------2------2---3-3333-3-3333-3--4-4444-4-4444-4--4-4444-4-4444-4-------|
E|-0-0000-0-0000-0-----------------------------------------------------------|




| /  slide up
| \  slide down
| h  hammer-on
| p  pull-off
| ~  vibrato
| +  harmonic
| x  Mute note
===============================================================================
Tap to rate this tab
# A B C D E F G H I J K L M N O P Q R S T U V W X Y Z