Miyavi - Survive tab

-------------------------------------------------------------------------------
			     Survive - Miyavi
-------------------------------------------------------------------------------
Tabbed by: Glenn Hall
Email: GlennHall43@gmail.com

Tuning: D standard

(Little Harmonic sets)

hold your finger over the fret and rake with your finger

e|----------5-------7--------------------------------------------------------|
B|----------5-------7--------------------------------------------------------|
G|----------5-------7--------------------------------------------------------|
D|----------5-------7--------------------------------------------------------|
A|----------5-------7--------------------------------------------------------|
E|---------------------------------------------------------------------------|



Intro Rhythm 


e|---------------------------------|
B|---------------------------------|
G|---------------------------------|
D|---------------------------------|     Repeat adding the above harmonics
A|---2--2--22---2-2--22-2-2--22----|     in different orders until the main
E|---0--0--00---0-0--00-0-0--00----|     riff starts.
Tap to rate this tab
 
# A B C D E F G H I J K L M N O P Q R S T U V W X Y Z