Miyavi - Itoshi Hito tab

I've made some changes and it sounds much beater to me
Enjoi

E||----------x----------x--|----------x----------x--|----------x----------x-|
B||------2---x------3---x--|----------x----------x--|------2---x------5---x-|
G||------2---x------2---x--|------4---x------2---x--|------2---x----------x-|
D||--0-------x--2-------x--|------2---x------2---x--|--0-------x------6---x-|
A||----------x----------x--|--4-------x----------x--|----------x--7-------x-|
E||----------x----------x--|----------x--2-------x--|----------x----------x-|


----------x----------x--|----------x----------x--|----------x----------x--|
----------x----------x--|------2---x------3---x--|------2---x----------x--|
------2---x------2---x--|------2---x------1---x--|------1---x------2---x--|
------2---x------2---x--|--0-------x--2-------x--|--3-------x------2---x--|
----------x----------x--|----------x----------x--|----------x----------x--|
--2-------x--3-------x--|----------x----------x--|----------x--2-------x--|


----------x----------x--|--4--------------4--||
----------x----------x--|--2--------------2--||
------4---x------2---x--|--2--------------2--||
------4---x------3---x--|--2--------------2--||
--5-------x--4-------x--|--2--------------2--||
----------x----------x--|--2--------------2--||
Tap to rate this tab
 
# A B C D E F G H I J K L M N O P Q R S T U V W X Y Z