Song name
# A B C D E F G H I J K L M N O P Q R S T U V W X Y Z

Miyavi - Boku Wa Shitteru tab

Miyavi - Boku wa Shitteru

Tabbed by : Keyser
Date :  07 / 12 / 06

Tuning - E, A, D, G, B, E

Palm Mute or Left Hand Mute : X
Slide Down : \
Slide Up : /
Tremolo : ~
Harmonics : ()
Hammer On : h
Pull Off : p
Pick towards you : ^ under the actual tab lines
Bend up : ^ within the tab itself
Re-pick during bend : r after ^

Intro/Main :

|-------------------------------------------------------------------------|
|-----------------7--7-7-7--6---------------------------------------------|
|--6--6-6-6--8----6--6-6-6--6----6--8----5--5-5-5--6----6--6-6-6--8-------|
|--4--4-4-4--6----6--6-6-6--6----4--6----6--6-6-6--6----4--4-4-4--6-------|
|-------------------------------------------------------------------------|
|-------------------------------------------------------------------------|


|----------------------------8--9-----------------|
|--7--7-7-7--6---------------6--6--9--------------|
|--5--5-5-5--6----6--8--6----------6--8--6--------|
|--7--7-7-7--8----4--6--6-------------6--6--------|
|-------------------------------------------------|
|-------------------------------------------------|

Pre-Chorus :

|------------------9-9-9--7-7-7--------|
|----------6--6-6--6-6-6--6-6-6--------|
|--6--8----6--6-6--6-6-6--6-6-6--------|
|--4--6----6--6-6--6-6-6--6-6-6--------|
|--------------------------------------|
|--------------------------------------|


Chorus :

|------------------------------------------------------------------------|
|--6--6-6-6---7--7-7-7---4--4-4-4---6--6-6-6---6--6-6-6---4--4-4-4-------|
|--6--6-6-6---6--6-6-6---5--5-5-5---5--5-5-5---6--6-6-6---5--5-5-5-------|
|--6--6-6-6---8--8-8-8---6--6-6-6---7--7-7-7---8--8-8-8---6--6-6-6-------|
|------------------------------------------------------------------------|
|------------------------------------------------------------------------|


|-------------------------------------------------------------------------|
|--6-6-6-6-6-6-6-6-6-6-6----6--6-6-6---7--7-7-7---4--4-4-4---6--6-6-6-----|
|--6-6-6-6-6-6-6-6-6-6-6----6--6-6-6---6--6-6-6---5--5-5-5---6--6-6-6-----|
|--6-6-6-6-6-6-6-6-6-6-6----6--6-6-6---8--8-8-8---6--6-6-6---6--6-6-6-----|
|-------------------------------------------------------------------------|
|-------------------------------------------------------------------------|


|----------------------------------------------------------------|
|--7--7-7-7---4--4-4-4---6--6-6-6-6-6-6-6--6--6-6-6-6-6-6-6------|
|--6--6-6-6---5--5-5-5---6--6-6-6-6-6-6-6--7--7-7-7-7-7-7-7------|
|--8--8-8-8---6--6-6-6---6--6-6-6-6-6-6-6--8--8-8-8-8-8-8-8------|
|----------------------------------------------------------------|
|----------------------------------------------------------------|


|------------------------9--9-9-9-9-9-9-9-9-9-9-9-9--------|
|---------6--6-6-6-6-6---9--9-9-9-9-9-9-9-9-9-9-9-9--------|
|-----5---6--6-6-6-6-6---6--6-6-6-6-6-6-6-6-6-6-6-6--------|
|--8--6---6--6-6-6-6-6---6--6-6-6-6-6-6-6-6-6-6-6-6--------|
|--6--6----------------------------------------------------|
|-----4----------------------------------------------------|


Arpeggio :

|------------------------------------------------------------------|
|--------6--------4--------7--6h7p6----------------6--------4------|
|-----6--------5--------6------------6----------6--------5---------|
|--4--------6--------8-------------------8---4--------6------------|
|------------------------------------------------------------------|
|------------------------------------------------------------------|


|-----------------------------------------------------------|
|--------4-------------6--------6--------4--------7---6-----|
|-----5-----5-------5--------6--------5--------5------6-----|
|--6-------------6--------4--------6--------7---------8-----|
|-----------------------------------------------------------|
|-----------------------------------------------------------|


Filler (Or bits that link certain parts) :

|----------------|
|----------------|
|--6---8---6-----|
|--4---6---6-----|
|----------------|
|----------------|

That's about it...don't forget to add your own percussion by tapping the body of the 
in between the parts played...
Tap to rate this tab
 
# A B C D E F G H I J K L M N O P Q R S T U V W X Y Z