Guitaretab - guitar tabs
Song name
# A B C D E F G H I J K L M N O P Q R S T U V W X Y Z

Miyavi - Itoshii Hito tab

Comments
------------------------
Its my favorite song by Meevers (when im in a sappy mood, apart from that its are you 
to rock all teh way!!) And i cant find the tabs ANYWHERE on the internet, or maybe google 
me... Its very Accurate, but im sorry I cant give you further chords. He favours dead notes doesnt he?

Enjoy!

Music was composed and preformed by Miyavi, While Liscenced and copyrighted at 
Only for Private study or Reasearch.
---------------------------

--MIYAVI
ITOSHII HITO (intro)


Track 1
V slaps
E||----------x----------x--|----------x----------x--|----------x----------x-|
B||------2---x------3---x--|----------x----------x--|------2---x------3---x-|
G||------2---x------2---x--|------4---x------2---x--|------2---x------2---x-|
D||--0-------x--2-------x--|------2---x------2---x--|--0-------x--2-------x-|
A||----------x----------x--|--4-------x----------x--|----------x----------x-|
E||----------x----------x--|----------x--2-------x--|----------x----------x-|

[ Tab from: http://www.guitaretab.com/m/miyavi/83267.html ]
----------x----------x--|------4---x----------x--|----------x----------x--|
----------x----------x--|------2---x------2---x--|------2---x----------x--|
------2---x------2---x--|------2---x------1---x--|------2---x------2---x--|
------2---x------2---x--|--0-------x--2-------x--|--3-------x------2---x--|
----------x----------x--|----------x----------x--|----------x----------x--|
--2-------x--3-------x--|----------x----------x--|----------x--2-------x--|


(strum this part slowly, tap base 4 times in ryhmn of TAP-tap...TAP-tap)
----------x----------x--|--4--------------4--||
------3---x------2---x--|--2--------------2--||
------2---x------2---x--|--2--------------2--||
--2-------x--0-------x--|--2--------------2--||
----------x----------x--|--2--------------2--||
----------x----------x--|--2--------------2--||

Tremolo Picking solo

on B and G strings

B 14 12 15 10 12 10 14

G 14 13 16 11 13 11 14

-----------------------------------------------------

B 14 12 17 9 10 12 14 10

G 14 13 18 10 11 13 14 11

Link to LFX Live Preformance
http://www.youtube.com/watch?v=xzVY3XksBmU

Link to Newest Music Video (Mind that I think hes clad in something i cant belive he 
>__<)
http://www.youtube.com/watch?v=f3Qz9cK3kF8&mode=related&search=
Related for Itoshii Hito tab