Song name
# A B C D E F G H I J K L M N O P Q R S T U V W X Y Z

Mizar - Pocesna Strelba tab

e|-----------------------------|
B|-----------------------------|
G|-----------0-----------------|
D|-----0--1--------0--0--1--0--|
A|--3--------------------------|
E|-----------------------------| x4


e|----------------|
B|---------8--11--|
G|------8---------|
D|--10------------|
A|----------------|
E|----------------|


e|------------------------------------------------------------------|
B|--11-11-11-11-11-11-9-9-9-9-9-9-8-8-8-8-8-8-13-13-13-13-13-13-13--|
G|------------------------------------------------------------------|
D|------------------------------------------------------------------|
A|------------------------------------------------------------------|
E|------------------------------------------------------------------| x3


e|------------------------------------|
B|--16-16-16-16-16-16-13-13-13-13-13--|
G|------------------------------------|
D|------------------------------------|
A|------------------------------------|
E|------------------------------------|


C5        F5 D#5 F5  C5  F5 D#5 F5  
Dogledanje,          bez bakneži, solzi;
i na noze - dodeka pišuva The End!

Od Istokot zlatno-žolt den se ragja,
i navečer na Zapad sč se davi v krv.

e|-----------------------------|
B|-----------------------------|
G|-----------0-----------------|
D|-----0--1--------0--0--1--0--|
A|--3--------------------------|
E|-----------------------------| x4


e|----------------|
B|---------8--11--|
G|------8---------|
D|--10------------|
A|----------------|
E|----------------|

Namesto so toržestven tresok,
Svetov kje zamolkne vo sramen pisok:
Nevermore!

D#     G#     Cm
Nišani gore v nebo!
Nišani gore v nebo!


e|--------------|
B|------16--15--|
G|--------------|
D|--------------|
A|--15----------|
E|--------------|

(The human race was dyin' out
Noone left to scream, to scream and shout
People walking on the Moon
Smog will get your pretty soon

I tried to run
I tried to hide
Break on through to the other side
Break on through to the other side) - Jim Morison


Ova se sviri nad refrenot so tremolo:
e|----------------------------------------|
B|----------------------------------------|
G|--12--10--12--13------12--10--12--------|
D|------------------12--------------10----|
A|----------------------------------------|
E|----------------------------------------|

e|--------------|
B|------16--15--|
G|--------------|
D|--------------|
A|--15----------|
E|--------------|

Nišani gore v nebo!
Nišani gore v nebo!
Nišani gore v nebo!
Nišani gore v nebo!


e|----------------------|
B|--8--6/13-13-13-13/8--|
G|----------------------|
D|----------------------|
A|----------------------|
E|----------------------|
I zamolkni vo tišina! 
Tap to rate this tab
# A B C D E F G H I J K L M N O P Q R S T U V W X Y Z