Song name
# A B C D E F G H I J K L M N O P Q R S T U V W X Y Z

Mizraab - Ujalon Main tab

----------------------------------------------------------------------------
			    Ujaloon Mein - Mizraab
----------------------------------------------------------------------------
Tabbed by: Zeeshan Amin
Email: mzeeshanamin@hotmail.com

Tuning: Standard (EADGBe)

On the song there are three guitars, but my tab is only for two.

Intro (00:00 to 00:09) Guitar 1 - Clean

e|----------------------------------------------------|
B|---11--11--11---11--11---11--11--11--11--11--11--11-|
G|-----12------12-------12-------12------12------12---|
D|-13------13-------13-------13------10------13-------|
A|----------------------------------------------------|
E|----------------------------------------------------|

e|------------------|
B|---11--11--11--11-|
G|-----12------12---|
D|-------10---------|
A|-11------11-------|
E|------------------|

(00:09 to 00:28) Guitar 2 - Distortion (Faraz Anwar)

e|---------------------------------------------------|
B|-6/8-8-8-8---8-------------------------------------|
G|--------------10-8-7-10----------------------------|
D|------------------------8----8-10-12-13-12-8-6-5-5-|
A|---------------------------------------------------|
E|---------------------------------------------------|

e|--------------11-10-8---------|
B|-4/8-11-8-8-9---------11------|
G|-------------------------10-8-|
D|------------------------------|
A|------------------------------|
E|------------------------------|

Verse 1:

Guitar 1 (Keep Repeating)

e|----------------------------------------------------|
B|---11--11--11---11--11---11--11--11--11--11--11--11-|
G|-----12------12-------12-------12------12------12---|
D|-13------13-------13-------13------10------13-------|
A|----------------------------------------------------|
E|----------------------------------------------------|

e|------------------|
B|---11--11--11--11-|
G|-----12------12---|
D|-------10---------|
A|-11------11-------|
E|------------------|

Guitar 2(00:38 to 00:40)

e|--------------|
B|-8/11-11-13---|
G|-----------12-|
D|--------------|
A|--------------|
E|--------------|

(00:47 to 00:50)

e|--------------|
B|--------------|
G|--------------|
D|-6/8-6-5\3-3--|
A|------------6-|
E|--------------|

(00:54 to 00:58)

e|------10~--------|
B|-8-11------------|
G|-----------------|
D|---------5-3-1-1-|
A|-----------------|
E|-----------------|

Chorus:-

Guitar 1 Power Chords C G D

Guitar 2 (01:14 to 01:15) (01:23 to 01:25)

e|-------|
B|-------|
G|-------|
D|-------|
A|-2-4-5-|
E|-------|

Verse 2:

Guitar 1 (Keep Repeating)

e|----------------------------------------------------|
B|---11--11--11---11--11---11--11--11--11--11--11--11-|
G|-----12------12-------12-------12------12------12---|
D|-13------13-------13-------13------10------13-------|
A|----------------------------------------------------|
E|----------------------------------------------------|

e|------------------|
B|---11--11--11--11-|
G|-----12------12---|
D|-------10---------|
A|-11------11-------|
E|------------------|

Guitar2 (01:32 to 01:47)

e|----------------------------------------13-11-----------------|
B|---------------13---------------------11-----13-11-9-8----7-8-|
G|--8-7-8--15-15----12--12-7-8-15--12-13----------------10-8----|
D|--------------------------------------------------------------|
A|--------------------------------------------------------------|
E|--------------------------------------------------------------|

(01:55 to 01:57) then (02:04 to 02:07)

e|----------------------------|
B|----------9p8-8-------------|
G|-7h8-8-10-------------------|
D|-----------------6/8-6-5-3--|
A|--------------------------6-|
E|----------------------------|

(02:15 to 02:16)

e|---------|
B|--9-8-11-|
G|---------|
D|---------|
A|---------|
E|---------|

(02:19 to 02:20)

e|---10-----|
B|-8----8~~-|
G|----------|
D|----------|
A|----------|
E|----------|

Chorus:

Guitar 1: Power Chords C G D

Guitar 2 (02:31 to 02:33)(02:41 to 02:43)(02:51 to 02:53)(02:59 to 03:02)

e|-------|
B|-------|
G|-------|
D|-------|
A|-2-4-5-|
E|-------|


Solo Time =]

(03:04 to 03:39)

e|---------------------------------------------------------------|
B|----------9-8----8-10/12-10-8/10-------------------------------|
G|-----8-10-----10----------------9-10~-12-14\9-----------9h10-9-|
D|-8-10----------------------------------------9/10-10-12--------|
A|---------------------------------------------------------------|
E|---------------------------------------------------------------|

e|---------------------------------------------------------------------|
B|-8-------------------------------------------------------------------|
G|---7------------------------------------------------------10-9-7-5-7-|
D|-----9-10-9-7-5-------------------5-10-9-7-5-3-2-0-3-7-10------------|
A|----------------7----------------7-----------------------------------|
E|------------------8-7-5-3-3/5-5-8------------------------------------|

e|---------------------------------------------------------------------|
B|---------------------------------------------------------------------|
G|-9-7----------12-10-9-7-5-7/9-7-5-7---------------12--12-17-14-12-10-|
D|----9-10-9-12-------------------------10----10-14--------------------|
A|-----------------------------------------12--------------------------|
E|---------------------------------------------------------------------|

e|--------------------------------------------------------------------|
B|-------------------------------------------21-19-17-15--------------|
G|-------------------22-21-19-17-14-17-21-24-----------17-22-21-19-17-|
D|-15-12-15-19-22-19--------------------------------------------------|
A|--------------------------------------------------------------------|
E|--------------------------------------------------------------------|

e|-------------------------------------------------------------------|
B|---------------------------------13-10-12--------------------------|
G|-19-21-19-17-19---------10-14-19---------12---16-14----------------|
D|------------------10-12-----------------------------17-16-12-16-17-|
A|-------------------------------------------------------------------|
E|-------------------------------------------------------------------|

e|--------------------------------------------------------------------|
B|--------------------------------------------------------------------|
G|--------------------------------------------------------------------|
D|-19-17-----------------------------12-14-15-17-15-14-15-14-12-14-10-|
A|------17-19-21-22-19-17-15-14-12------------------------------------|
E|--------------------------------------------------------------------|

e|--------------------------------------------------------------------|
B|--------------------------------------------------------------------|
G|--------------------------------------------------------------------|
D|-12-10-9-7----------------------------------------------------------|
A|----------10-----------12--------12-10-9-7-9-10-15-14-12-10-9-12-15-|
E|------------12-12-14-15--12-14-12-----------------------------------|

e|-------------------------------------------------------------|
B|------------------8-10-12-14-17-14---------------------------|
G|-------------12-9-----------------14-12----------------------|
D|-17-15-14-12---------------------------10--10-12-14-16-14-12-|
A|-----------------------------------------12------------------|
E|-------------------------------------------------------------|

e|-------------------------|
B|-------------------------|
G|-9-12-14-17-14-17-17-17~~|
D|-------------------------|
A|-------------------------|
E|-------------------------|

Run: (its not complete)

(03:39 to 03:43)

e|----------------------------------|
B|----------------------------------|
G|----------------------------------|
D|-17-15-14-12------------------17--|
A|-------------15-12-14-15-17-19----|
E|----------------------------------|

Chorus Again:-

Guitar 1 Power Chords C G D

Guitar 2 (03:49 to 03:51)(03:57 to 04:00)

e|-------|
B|-------|
G|-------|
D|-------|
A|-2-4-5-|
E|-------|

Outro:-

Ok play something from the riffs above. I am really tired now. And yes i know the tab 
perfect but i tried making it as good as possible and i think i should not be putin in 
time on this. As about the solo i
dont think its that bad plus dont compare it with whats played on the song cause FARAZ 
plays it he is like the best guitarist in the world.
Love his guitaring and only that is what made me sit and transcribe this song.

			 Keep Rockin Mizraab!!!!!!

| /  slide up
| \  slide down
| h  hammer-on
| p  pull-off
| ~  vibrato
============================================================================
Tap to rate this tab
 
# A B C D E F G H I J K L M N O P Q R S T U V W X Y Z