Song name
# A B C D E F G H I J K L M N O P Q R S T U V W X Y Z

Mizraab - Ujaloun Mein tab

----------------------------------------------------------------------------
			     Ujaloun mien - Mizraab
----------------------------------------------------------------------------
Tabbed by:Ahsen khan
Email:rocking_lead_guitar@hotmail.com

Tuning:standard (EADGBe)

okay nobody tabbed the intro of the song and the intro has a really nice tune so i 
to tab it well here you go:

Intro: (acoustic)

e|-------------------------------------------------------------------------|
B|------0--------0-------0------0-------0------0-------0-------0-----------|
G|----11-11----11-11---11-11--11-11---11-11--11-11---11-11---11-11---------|
D|--12-------12-------0------0---------------------------------------------|
A|----------------------------------12------12------0-------0--------------|
E|-------------------------------------------------------------------------|

Then the lead guitar kicks in which is ditorted with some effect


e|-------------------------------------------------------------------------|
B|-4s8b-8b-8-----------------------------4s8h11p8-8-11-1716----------------|
G|----------10-8-7-10-3--353-6-5-3-1p0h3--------------------1512-12s8------|
D|-------------------------------------------------------------------------|
A|-------------------------------------------------------------------------|
E|-------------------------------------------------------------------------|

well thats it folks this is pretty damn accurate check it out for yourself anyways later 
=p
============================================================================
Tap to rate this tab
# A B C D E F G H I J K L M N O P Q R S T U V W X Y Z