Song name
# A B C D E F G H I J K L M N O P Q R S T U V W X Y Z

Mkto - Thank You tab

New Song from the Band MKTO, 

-------------------------------------------------------------------------------
                             Thank you - MKTO
-------------------------------------------------------------------------------
Tabbed by: dwarfcar21
E-mail:wally_kai_harper@yahoo.com

Band Website: http://www.wearemkto.com/  (Signed with Columbia Records)

Tuning: standard

catchy song, gaining popularity on youtube. 


Verse/Chorus: Repeat throughout song

e|----4---4------4---4---4----4------------------------------7--7-----------|
b|----5---5------5---5---5----5-----4--4------4--4--4-----4--7--7-----------|
g|----4---4------4---4---4----4-----4--4------4--4--4-----4--8--8-----------|
D|----------------------------------4--4------4--4--4-----4-----------------|
A|--------------------------------------------------------------------------|
E|--------------------------------------------------------------------------|

e|----7--7--7-----7--6--6----6---2--2-----2---------------------------------|
B|----7--7--7-----7--7--7----7---2--2-----2---------------------------------|
G|----8--8--8-----8--6--6----6---3--3-----3---------------------------------|
D|-------------------------------------------------------=------------------|
A|--------------------------------------------------------=-----------------|
E|---------------------------------------------------------=----------------|


************************************

| /   slide up
| \   slide down
| h   hammer-on
| p   pull-off
| ~   vibrato
| +   harmonic
| x   Mute note
| b   Bend
| pb  Pre-bend
| br  Bend release
| pbr Pre-bend release
| brb Bend release bend

************************************
Tap to rate this tab
# A B C D E F G H I J K L M N O P Q R S T U V W X Y Z