Guitaretab - guitar tabs
Song name
# A B C D E F G H I J K L M N O P Q R S T U V W X Y Z

Mladen Vojicic Tifa - Grbavica tab

#----------------------------------PLEASE NOTE---------------------------------#
#This file is the author's own work and represents their interpretation of the #
#song. You may only use this file for private study, scholarship, or research. #
#------------------------------------------------------------------------------#


Tabbed by:Haris Opanovic
Email:haris_rock_ze@yahoo.com

Tuning:Intro

e|--------------------|----------------------|--------------------|------------------|
B|----6-8-------------|----5-6---------------|----6-8-------------|------------------|
G|-/9-----9-7-9-7-5-7-|-/7-----7-5-7-5-3-5-5-|-/9-----9-7-9-7-5-7-|--7-5-4-------5---|
D|--------------------|----------------------|--------------------|-7------7-5-7---7-|
A|--------------------|----------------------|--------------------|------------------|
E|--------------------|----------------------|--------------------|------------------|

Solo

Part 1(beginning)
[ Tab from: http://www.guitaretab.com/m/mladen-vojicic-tifa/82606.html ]
e|--------------------|----------------------|--------------------|------------------|
B|----6-8-------------|----5-6---------------|----6-8-------------|------------------|
G|-/9-----9-7-9-7-5-7-|-/7-----7-5-7-5-3-5-5-|-/9-----9-7-9-7-5-7-|--7-5-4-------5---|
D|--------------------|----------------------|--------------------|-7------7-5-7---7-|
A|--------------------|----------------------|--------------------|------------------|
E|--------------------|----------------------|--------------------|------------------|

Part 2(middle)

e|-----------------------------|--------13----------------------|
B|-/17-18-20-17-15-17-15-13-15-|-/15-17----15-13-15-13-12-13-13-|
G|-----------------------------|--------------------------------|
D|-----------------------------|--------------------------------|
A|-----------------------------|--------------------------------|
E|-----------------------------|--------------------------------|

Part 3(end)

e|----------------------------------------------------------|
B|-/17-18-20-17-15-17-15-13-15----15-13-12------------------|
G|-----------------------------14----------14-12-14-12-14---|
D|----------------------------------------------------------|
A|----------------------------------------------------------|
E|----------------------------------------------------------|

Thatís that.

Enjoy!

| /  slide up
Related for Grbavica tab