Song name
# A B C D E F G H I J K L M N O P Q R S T U V W X Y Z

Mllcheesecake - The Insane Song Of Insanity tab

Into part 1. Reapeat this until Intro part 2.
----------------------|
-3-------2-2-3-2-3-0~-|
-2-2-3~--4------------|
----------------------|
----------------------|
----------------------|

Intro part 2. Repeat until verse.
-------------------------------|
-2-2-2-2-3-2-2-2-2-2-2-3-2-0-0-|
-------------------------------|
-------------------------------|
-------------------------------|
-------------------------------|

Verse 1.
---------------------------------------------------------|
-2-2-2-2-3-2-2-2-2-2-2-3-2-2-2-2-2-2-3-2-2-2-2-2-2-3-2-0-|
---------------------------------------------------------|
---------------------------------------------------------|
---------------------------------------------------------|
---------------------------------------------------------|

Still verse one after that ^ is played one time play this.
-------------------------------------------|
-2-2-2-2-3-2-2-2-2-2-2-3-2---------4-2-0-2-|
---------------------------2-4-2-0---------|
-------------------------------------------|
-------------------------------------------|
-------------------------------------------|
Those two riffs are rotated each time played. And do it until chorus.

Chorus.
-------------------------------------------3-3-3s5-5-5----|
-2-2-2-2s3-3-3-3s5-5-5-5s3-3-3-2-2-2s3-3-3-5-5-5s7-7-7----|
-4-4-4-4s5-5-5-5s7-7-7-7s5-5-5-4-4-4s5-5-5----------------|   x2
----------------------------------------------------------|
----------------------------------------------------------|
----------------------------------------------------------|

Verse 2. reapeat verse 1.

Chorus 2. Repeat chorus 1.

Bridge. Repeat intro Part 2.

Solo. Turn on wah.
--------------------------------------------|
-14-14-14-14-15p14-14-----14-----14-15p14---|
---------------------17p14--15p14-----------|
--------------------------------------------|  x2
--------------------------------------------|
--------------------------------------------|

then
-----------------------------------------------------------------------------|
-15-15-15-15-16p15-15-----15-----15-16p15-17-17-17-17-18p17-----17-----18p17-|
---------------------18p15--16p15--------------------------20p17--18p17------|
-----------------------------------------------------------------------------|
-----------------------------------------------------------------------------|
-----------------------------------------------------------------------------|

Repeat whole solo x2.

Chorus 3. Repeat Chorus 1 but with the wah.

Verse 3. Repeat verse 1. No what.

End with power chord.
--------|
----2---|
----4---|
--------|
--------|
--------|
Tap to rate this tab
# A B C D E F G H I J K L M N O P Q R S T U V W X Y Z