Song name
# A B C D E F G H I J K L M N O P Q R S T U V W X Y Z

Mllcheesecake - Dreaming tab

Verse 1.
-----------------     ------------------------------------|
-3--------3------     -0--------0--------0--------0-------|
---2--------2---- x2  ---2--------2--------2--------2-----|
-----0--------0--     -----2--------2--------2--------2---|
-------3--------1     -------1--------0--------0--------1-|
-----------------     ------------------------------------|
^___________________________x4__________________________^


Chorus 1.
---------------------|
-3-3-3s5-3---0-0-3-0-|
-5-5-5s7-5---2-2-5-2-|
---------------------|
---------------------|
---------------------|
^________x4________^


Verse 2. Repeat verse 1.

Chorus 2- Reapeat chorus 1.

Bridge.
-0-0-0-0-0---3-3-3-3-3-3p0-|
-2-2-2-2-2p0-5-5-5-5-5-5p0-|
---------------------------|
---------------------------|
---------------------------|
---------------------------|

Solo time. (Use wah wah)
-----------------------------------------|
-15-17---------------17-------17---------|
-------15-17-17wb-15----15-15------------|
-----------------------------------------|
-----------------------------------------|
-----------------------------------------|
                                             x8
------------------------------------------|
-12-14---------------14-------------------|
-------12-14-14wb-12----12-14-12-14-14s16-|
------------------------------------------|
------------------------------------------|
------------------------------------------|

On fourth and eight time play

------------------------------------|
-12-14---------------14-------------|
-------12-14-14wb-12----12-12-12-12-|
------------------------------------|
------------------------------------|
------------------------------------|

Chorus 3. Repeat Chorus 1,2.

Verse 3. Repeat verse 1,2.
Tap to rate this tab
# A B C D E F G H I J K L M N O P Q R S T U V W X Y Z