Song name
# A B C D E F G H I J K L M N O P Q R S T U V W X Y Z

Mnemic - Deathbox tab

                                   Deathbox

                                      By

                                    Mnemic


B, E, A, D, F#, B Tabbed by:SomeMetallover

Intro:
Repeat this. To get the proper rhythm, you will have to listen to the song.
Use tremolo picking for the first part then palm mute the open notes for the rest.

      PM PM               PM PM PM PM           PM PM        PM PM
      E  E  E   E  E   E  E  E  E  E     E   E  E  E  E   E  E  E  E   E
B ||----------------------------------|-----------------------------------|
F#||----------------------------------|-----------------------------------|
D ||----------------------------------|-----------------------------------|
A ||----------------------------------|-----------------------------------|
E ||----------------------------------|-----------------------------------|
B ||--0--0--1p--0--1p--0--0--0--0--0--|--4p--1--0--0--1p--0--0--0--4p--1--|


Verse (repeat twice)


  PM PM    PM PM    PM PM        PM PM    PM PM    PM PM
  E  E  Q  E  E  Q  E  E          E  E Q  E  E  Q  E  E
B ------------------------------|------------------------------|
F#------------------------------|------------------------------|
D ------------------------------|------------------------------|
A ------------------------------|------------------------------|
E ------------------------------|------------------------------|
B --2-2----2-2----2-2-2-2-------|--2-2----2-2----2-2-2-2-------|

  PM PM    PM PM    PM PM        PM PM   PM PM      PM PM
  E  E  Q  E  E  Q  E  E         E  E  Q  E  E  Q    E  E
B ------------------------------|------------------------------|
F#------------------------------|------------------------------|
D ------------------------------|------------------------------|
A ------------------------------|------------------------------|
E ------------------------------|------------------------------|
B --2-2----2-2----2-2-2-2-------|--2-2----2-2---2-2-2-2-5-5-6-6|


Intro play (open notes palm muted)

While intro is playing, Mircea is playing:
B -----------------------------------------|
F#-----------------------------------------|
D ---9--------12-------10----------9-------|
A ---x---------x--------x----------x-------|
E ---7--------10--------8----------7-------|
B -----------------------------------------|


The intro is then played again (open notes palm muted)


Panning part I believe is: (repeat twice)


PM --------------------------------------------| = (all palm muted )
  E  E  E  E  E  E  E  E  E  E     E  E  E  E  E  E  E  E  E  E
B--------------------------------|--------------------------------|
F#-------------------------------|--------------------------------|
D--------------------------------|--------------------------------|
A--------------------------------|--------------------------------|
E--------------------------------|--------------------------------|
B--2--2--3--3--2--2--3--3--2--2--|--2--2--3--3--2--2--3--3--2--2--|


Verse (repeat twice)

On second time, finish with:
  PM PM   PM PM
B--------------------|
F#-------------------|
D--------------------|
A--------------------|
E--------------------|
B --2-2---2-2-2-2----|

Without going up to the 5 and 6

Chorus (Its Maybe not 100 % Correct)

B-------------------------|------------------------|
F#------------------------|------------------------|
D-------------------------|------------------------|
A--7-----7----7--7-----7--|--5-----5---5--5----5---|
E--7-----7----7--7-----7--|--5-----5---5--5----5---|
B--5-----5----5--5-----5--|--3-----3---3--3----3---|

B-----------------------|-------------------------|-------------------------|
F#----------------------|-------------------------|-------------------------|
D-----------------------|-------------------------|-------------------------|
A---6----6--6----6--6---|--3-----3----3--3-----3--|--10-----10--10--9---10--|
E---6----6--6----6--6---|--3-----3----3--3-----3--|--10-----10--10--9---10--|
B---4----4--4----4--4---|--1-----1----1--1-----1--|---8------8---8--7----8--|

B-----------------------|-------------------------|-----------------------|
F#----------------------|-------------------------|-----------------------|
D--------9--9----9--9---|-------------------------|-----------------------|
A---9----9--9----9--9---|--7-----7----7--7-----7--|---5------5--5--5---5--|
E---7----7--7----7--7---|--7-----7----7--7-----7--|---5------5--5--5---5--|
B---7----7--7----7--7---|--5-----5----5--5-----5--|---3------3--3--3---3--|

B-----------------------|-------------------------|-------------------------|
F#----------------------|-------------------------|-------------------------|
D-----------------------|-------------------------|-------------------------|
A---6----6--6----6--6---|--3-----3----3--3-----3--|---10-----10--9--10---9--|
E---6----6--6----6--6---|--3-----3----3--3-----3--|---10-----10--9--10---7--|
B---4----4--4----4--4---|--1-----1----1--1-----1--|----8------8--7---8---7--|

B----------------------------|
F#---------------------------|
D---9----9--9----------------|
A---9----9--9----3--4--------|
E---7----7--7----3--4--------|
B---7----7--7----1--2--------|

This is what i am playing under the chorus
(clean Guitar)

B--------------------------------------------------------------------------|
F#-----0--0--0------0--0--0-----0--0--0----0--0--0-----0--0--0----0--0--0--|
D----5--5--5------5--5--5-----5--5--5----5--5--5-----5--5--5----5--5--5----|
A--------------------------------------------------------------------------|
E--------------------------------------------------3----------0------------|
B--5------------3-----------4----------1-----------------------------------|
the last two root notes may be wrong


Bridge
B --------------------------------------------------------------------------|
F#--------------------------------------------------------------------------|
D --------------------------------------12\11-------------------------------|
A --4--5--4--2---9--8-8---4--5--4--2-----x--x----9--8--5--4--5-5\4---4--2-9-|
E --4--5--4--2---9--8-8---4--5--4--2----10\-9----9--8--5--4--5-5\4---4--2-9-|
B --2--3--2--0---7--6-6---2--3--2--0-------------7--6--3--2--3-3\2---2--0-7-|

B -----------------------------------------------------|
F#-----------------------------------------------------|
D ----------------------12\11--------------------------|
A --8-8---4--5--4--2-----x--x----9--8--5--4--5-5\4-----|
E --8-8---4--5--4--2----10\-9----9--8--5--4--5-5\4-----|
B --6-6---2--3--2--0-------------7--6--3--2--3-3\2-----|

Repeat twice while palm muting, then twice without palm muting so the chords ring out. 
the bridge with:

B ---------------------------------|
F#---------------------------------|
D --12\11--------------------------|
A ---x--x----9--8--5--4--5-5-~~~---|
E --10\-9----9--8--5--4--5-5-~~~---|
B -----------7--6--3--2--3-3 ~~~---|

While the unmated part of the bridge is playing, Mircea plays this over the top:

B----------------------------------------|
F#---------------------------------------|
D ---11-------14-------12---------11-----|
A ----x--------x--------x----------x-----|
E ----9-------12-------10----------9-----|
B ---------------------------------------|

Ending with:

B -----------|
F#-----------|
D ---12-~~~--|
A ---x -~~~--|
E ---10-~~~--|
B -----------|

Duration Legend
---------------
W - whole
H - half
Q - quarter
E - 8th
S - 16th
T - 32nd
X - 64th
. - note dotted
|-n-|  - n-tuplets


Tablature Legend
----------------
L - tied note
x - dead note
g - grace note
(n) - ghost note
> - accentuded note
NH - natural harmonic
AH - artificial harmonic
TH - tapped harmonic
SH - semi harmonic
PH - pitch harmonic
h - hammer on
p - pull off
b - bend
br - bendRelease
pb - preBend
pbr - preBendRelease
brb - bendReleaseBend
\n/ - tremolo bar dip
\n - tremolo bar dive
-/n - tremolo bar Release up
/n\ - tremolo bar inverted dip
/n - tremolo bar return
-\n - tremolo bar Release down
S - shift slide
s - legato slide
/ -  slide into from below or out of upwards
\ -  slide into from above or out of downwards
~ - vibrato
W - wide vibrato
tr - trill
TP - tremolo picking
T - tapping
S - slap
P - pop
< - fade in
^ - brush up
v - brush down
Tap to rate this tab
# A B C D E F G H I J K L M N O P Q R S T U V W X Y Z