Song name
# A B C D E F G H I J K L M N O P Q R S T U V W X Y Z

Mobb Deep - Shook Ones Part 2 tab

Since the other tabs are profoundly wrong...

MOBB DEEP - "Shook Ones (Part II)"
Album: The Infamous (1995)
Tuning: Standard

[Acoustic]
e|----------------------|
B|----------------------|
G|-------------3-----3--|
D|---3-----------1-3----|
A|--4--1-3-4------------|
E|-----------2----------|


[Bassline]
G|----------------------|
D|----------------------|
A|--1-1-----------------|
E|-----------2-2---1-1--|
Tap to rate this tab
 
# A B C D E F G H I J K L M N O P Q R S T U V W X Y Z