Song name
# A B C D E F G H I J K L M N O P Q R S T U V W X Y Z

Mobb Deep - Right Back At You tab

-------------------------------------------------------------------------------
	   Right Back At You - Mobb Deep
-------------------------------------------------------------------------------
Tabbed by: Jeff Maginniss
Email: peridot203@gmail.com

Tuning: Standard E-A-D-G-B-e

Tempo: fast paced

Performance note: there can be some variation in timing for the chords.  Each
chord is struck once, no strumming.  This is a very simple rythim, bass and
keyboard arrangement which I tabbed for guitar.  Call it funny, I think it's
a very catchy tune.

For those who want just the chords and rythem:

Main Loop: (note: bass guitar plays "B" note to rythem (A string, 2nd fret)



      1    2    3    4    |    1    2    3    4    
e||-----------------------|------------------------|
B||o--5-------------------|----5----------------3--|
G||---6-------------------|----5----------------4--|
D||---6-------------------|----5----------------4--|
A||o--4-------------------|----3----------------2--|
E||-----------------------|------------------------|

      1    2    3    4    |    1    2    3    4   [4x]
e|------------------------|------------------------||
B|---(3)------------------|---(3)-----------------o||
G|---(4)------------------|---(4)------------------||
D|---(4)------------------|---(4)------------------||
A|---(2)------------------|---(2)-----------------o||
E|------------------------|------------------------||
      * Hold Note and let ring....




For those who want a complete breakdown in song by time marks:




=========== Intro (0:00 - 0:04) - rythem enters

   
      1    2    3    4    |    1    2    3    4    |    1    2    3    4
e|------------------------|------------------------|------------------------|
B|------------------------|------------------------|------------------------|
G|------------------------|------------------------|------------------------|
D|-------TACET------------|-------TACET------------|-------TACET------------|
A|------------------------|------------------------|------------------------|
E|------------------------|------------------------|------------------------|

Main Loop:  (0:04 - 0:26) - repeat 4x with bass playing "B" (a string, 2nd fret)

      1    2    3    4    |    1    2    3    4    
e||-----------------------|------------------------|
B||o--5-------------------|----5----------------3--|
G||---6-------------------|----5----------------4--|
D||---6-------------------|----5----------------4--|
A||o--4-------------------|----3----------------2--|
E||-----------------------|------------------------|

      1    2    3    4    |    1    2    3    4   [4x]
e|------------------------|------------------------||
B|---(3)------------------|---(3)-----------------o||
G|---(4)------------------|---(4)------------------||
D|---(4)------------------|---(4)------------------||
A|---(2)------------------|---(2)-----------------o||
E|------------------------|------------------------||


=========== Verse 1: (0:26 - 1:21) - repeat 10x


      1    2    3    4    |    1    2    3    4    
e||-----------------------|------------------------|
B||o--5-------------------|----5----------------3--|
G||---6-------------------|----5----------------4--|
D||---6-------------------|----5----------------4--|
A||o--4-------------------|----3----------------2--|
E||-----------------------|------------------------|

      1    2    3    4    |    1    2    3    4  [10x]
e|------------------------|------------------------||
B|---(3)------------------|---(3)-----------------o||
G|---(4)------------------|---(4)------------------||
D|---(4)------------------|---(4)------------------||
A|---(2)------------------|---(2)-----------------o||
E|------------------------|------------------------||


=========== Chorus: (1:21 - 1:43) - repeat 4x


      1    2    3    4    |    1    2    3    4    
e||-----------------------|------------------------|
B||o--5-------------------|----5----------------3--|
G||---6-------------------|----5----------------4--|
D||---6-------------------|----5----------------4--|
A||o--4-------------------|----3----------------2--|
E||-----------------------|------------------------|

      1    2    3    4    |    1    2    3    4   [4x]
e|------------------------|------------------------||
B|---(3)------------------|---(3)-----------------o||
G|---(4)------------------|---(4)------------------||
D|---(4)------------------|---(4)------------------||
A|---(2)------------------|---(2)-----------------o||
E|------------------------|------------------------||


=========== Bridge: (1:43 - 1:54) - repeat 2x


      1    2    3    4    |    1    2    3    4    
e||-----------------------|------------------------|
B||o--5-------------------|----5----------------3--|
G||---6-------------------|----5----------------4--|
D||---6-------------------|----5----------------4--|
A||o--4-------------------|----3----------------2--|
E||-----------------------|------------------------|

      1    2    3    4    |    1    2    3    4   [2x]
e|------------------------|------------------------||
B|---(3)------------------|---(3)-----------------o||
G|---(4)------------------|---(4)------------------||
D|---(4)------------------|---(4)------------------||
A|---(2)------------------|---(2)-----------------o||
E|------------------------|------------------------||


=========== Verse 2: (1:54 - 2:55) - repeat 11x


      1    2    3    4    |    1    2    3    4    
e||-----------------------|------------------------|
B||o--5-------------------|----5----------------3--|
G||---6-------------------|----5----------------4--|
D||---6-------------------|----5----------------4--|
A||o--4-------------------|----3----------------2--|
E||-----------------------|------------------------|

      1    2    3    4    |    1    2    3    4  [11x]
e|------------------------|------------------------||
B|---(3)------------------|---(3)-----------------o||
G|---(4)------------------|---(4)------------------||
D|---(4)------------------|---(4)------------------||
A|---(2)------------------|---(2)-----------------o||
E|------------------------|------------------------||


=========== Chorus: (2:55 - 3:06) - repeat 2x


      1    2    3    4    |    1    2    3    4    
e||-----------------------|------------------------|
B||o--5-------------------|----5----------------3--|
G||---6-------------------|----5----------------4--|
D||---6-------------------|----5----------------4--|
A||o--4-------------------|----3----------------2--|
E||-----------------------|------------------------|

      1    2    3    4    |    1    2    3    4   [2x]
e|------------------------|------------------------||
B|---(3)------------------|---(3)-----------------o||
G|---(4)------------------|---(4)------------------||
D|---(4)------------------|---(4)------------------||
A|---(2)------------------|---(2)-----------------o||
E|------------------------|------------------------||


=========== Verse 3: (3:06 - 3:45) - repeat 7x


      1    2    3    4    |    1    2    3    4    
e||-----------------------|------------------------|
B||o--5-------------------|----5----------------3--|
G||---6-------------------|----5----------------4--|
D||---6-------------------|----5----------------4--|
A||o--4-------------------|----3----------------2--|
E||-----------------------|------------------------|

      1    2    3    4    |    1    2    3    4  [7x]
e|------------------------|------------------------||
B|---(3)------------------|---(3)-----------------o||
G|---(4)------------------|---(4)------------------||
D|---(4)------------------|---(4)------------------||
A|---(2)------------------|---(2)-----------------o||
E|------------------------|------------------------||


=========== Verse 4: (3:45 - 3:50) - No repeat: Bass plays "B" only


      1    2    3    4    |    1    2    3    4    
e|------------------------|------------------------|
B|------------------------|------------------------|
G|------------------------|------------------------|
D|-------TACET------------|-------TACET------------|
A|------------------------|------------------------|
E|------------------------|------------------------|

      1    2    3    4    |    1    2    3    4
e|------------------------|------------------------|
B|------------------------|------------------------|
G|------------------------|------------------------|
D|-------TACET------------|-------TACET------------|
A|------------------------|------------------------|
E|------------------------|------------------------|

Repeat this: (3:50 - 4:29) 7x

      1    2    3    4    |    1    2    3    4    
e||-----------------------|------------------------|
B||o--5-------------------|----5----------------3--|
G||---6-------------------|----5----------------4--|
D||---6-------------------|----5----------------4--|
A||o--4-------------------|----3----------------2--|
E||-----------------------|------------------------|

      1    2    3    4    |    1    2    3    4  [7x]
e|------------------------|------------------------||
B|---(3)------------------|---(3)-----------------o||
G|---(4)------------------|---(4)------------------||
D|---(4)------------------|---(4)------------------||
A|---(2)------------------|---(2)-----------------o||
E|------------------------|------------------------||


=========== Outro: (4:29 - 4:52) - repeat 4x


      1    2    3    4    |    1    2    3    4    
e||-----------------------|------------------------|
B||o--5-------------------|----5----------------3--|
G||---6-------------------|----5----------------4--|
D||---6-------------------|----5----------------4--|
A||o--4-------------------|----3----------------2--|
E||-----------------------|------------------------|

      1    2    3    4    |    1    2    3    4  [4x]
e|------------------------|------------------------||
B|---(3)------------------|---(3)-----------------o||
G|---(4)------------------|---(4)------------------||
D|---(4)------------------|---(4)------------------||
A|---(2)------------------|---(2)-----------------o||
E|------------------------|------------------------||

| /  slide up
| \  slide down
| ^  accent note on downstroke
| h  hammer-on
| p  pull-off
| ~  vibrato
| +  harmonic
| x  Mute note
===============================================================================
Tap to rate this tab
# A B C D E F G H I J K L M N O P Q R S T U V W X Y Z