Song name
# A B C D E F G H I J K L M N O P Q R S T U V W X Y Z

Mobb Deep - Shook Ones Part 2 tab

Bassline

G|----------------------|
D|----------------------|
A|--1-1-----------------|
E|-----------2-2---1-1--|


Melody

e|-------------------------|
B|-------------------------|
G|--------------3------3---|
D|------3-----------3------|
A|--1----------------------|
E|----------2--------------|

Might be a note inbetween the F and F#
Tap to rate this tab
# A B C D E F G H I J K L M N O P Q R S T U V W X Y Z