Song name
# A B C D E F G H I J K L M N O P Q R S T U V W X Y Z

Mobile - The Killer tab

12/22/08

Cool song by a Canadian band. There weren't any tabs for the song so I decided to learn it by ear. 
When playing the lead parts, I recommend using some chorus or delay... 
a combination of both sounds pretty cool, the lead guitar has great tone in the song.

Standard Tuning - EADGBe

Intro:

Guitar Lead
e-------------------------------------------------------|
B--------9--------------------9-----------11--9---------|
G--8--10-------8--10----8--10-------8--10---------------|
D----------8-8-------8----------8-8---------------------|
A-------------------------------------------------------|
E-------------------------------------------------------|

Guitar Rhythm
e--------------------------|
B--------------------------|
G--------6666--------------|
D--8888--6666--6666--4444--|
A--8888--4444--6666--4444--|
E--6666--------4444--2222--|


Verse:

Guitar Lead (After a couple times through)
e-------------------------------------------------------|
B--14-14-14-13-13-13-11-11-11----11---11---11-----------|
G-----------------------------13---13---13---13---------|
D-------------------------------------------------------|
A-------------------------------------------------------|
E-------------------------------------------------------|

e---------------------------------16----16----16/0------|
B--16-16-16-14-14-14-13-13-13--13----13----13-----------|
G-------------------------------------------------------|
D-------------------------------------------------------|
A-------------------------------------------------------|
E-------------------------------------------------------|

Guitar Rhythm
e----------------------------------------|
B----------------------------------------|
G--------------------66666666------------|
D--8888888888888888--66666666--66666666--|
A--8888888888888888--44444444--66666666--|
E--6666666666666666------------44444444--|


Chorus:

Guitar Rhythm
e--------------------------|
B--------------------------|
G--------6666--------------|
D--8888--6666--6666--4444--|
A--8888--4444--6666--4444--|
E--6666--------4444--2222--|



Its good for a general idea. Enjoy!!
Tap to rate this tab
 
# A B C D E F G H I J K L M N O P Q R S T U V W X Y Z