Song name
# A B C D E F G H I J K L M N O P Q R S T U V W X Y Z

Mobius Band - Starts Off With A Bang tab

Mobius Band
Song: Starts Off with A Bang
Tabbed by: jedichewy

Tuning: standard

INTRO: (keyboard part)X2
this is also played at every break

e|-12-12-12-12-12---------14-14-14-14-14------------------------------|
B|----------------10--10--------------------15--15-15-15-15-15-15--12-|
G|--------------------------------------------------------------------|
D|--------------------------------------------------------------------|
A|--------------------------------------------------------------------|
E|--------------------------------------------------------------------|

e|-------14-14-14-14-14--12------------------------------------|
B|--12---------------------------------------------------------|
G|-------------------------------------------------------------|
D|-------------------------------------------------------------|
A|-------------------------------------------------------------|
E|-------------------------------------------------------------|


Enter guitar/ vocals (MAIN RIFF)
(this is the basic form for the whole song)
e|--0--0--0---2-2--2--2--0--0--0---2-2--2---------------------|
B|--2--2--2---3-3--3--3--0--0--0---3-3--3---------------------|
G|--2--2--2---2-2--2--2--0--0--0---2-2--2---------------------|
D|--2--2--2---0-0--0--0--0--0--0---0-0--0---------------------|
A|--0--0--0--------------2--2--2------------------------------|
E|-----------------------3--3--3------------------------------|
it starts off with a bang.....


(Repeat main riff for every verse EXCEPT for the break that leads to
 the keyboard part. This is the part before the keyboard brake)

MAIN RIFF 2
e|--0--0--0---2-2--2--2--0--0--0---2-2--2--2--0--0--0--2-2--2--|
B|--2--2--2---3-3--3--3--0--0--0---3-3--3--3--0--0--0--3-3--3--|
G|--2--2--2---2-2--2--2--0--0--0---2-2--2--2--0--0--0--2-2--2--|
D|--2--2--2---0-0--0--0--0--0--0---0-0--0--0--0--0--0--0-0--0--|
A|--0--0--0--------------2--2--2--------------2--2--2----------|
E|-----------------------3--3--3--------------3--3--3----------|
                                    ---------------------------| we used to get it for free
                                    ETC.

CHORUS
e|--0--0----------0--0----------------0--0----------------2--2-|
B|--2--2----------2--2----------------0--0----------------3--3-|
G|--2--2----------2--2----------------0--0----------------2--2-|
D|--2--2----------2--2----------------0--0----------------0--0-|
A|--0--0----------0--0----------------2--2---------------------|
E|------------------------------------3--3---------------------|
        so ohhh...    sick of music...     sick of music...


SOLO (easy solo, so im just gonna put what to play.
      Just listen to the song to see how long you play each one)
e|-------------------------------------------------------------|
B|-5----7----8---7--------5----7----8-----10---7----5-----5----|
G|--------------------------------------------------------6----|
D|--------------------------------------------------------7----|
A|--------------------------------------------------------7----|
E|-------------------------------------------------------------|
               (at the end of the solo it mixes into this ^)

BACK TO MAIN RIFF

bad start of the century my mind keeps wandering...

Listen to the song to get the parts right.
its not that hard.

End on D chord!

well thats all... good song mhm!
feedback? just say so!
Tap to rate this tab
# A B C D E F G H I J K L M N O P Q R S T U V W X Y Z