Song name
# A B C D E F G H I J K L M N O P Q R S T U V W X Y Z

Moby - Scream Pilots chords

Highlighted       Show chord diagrams
Chords used: C, G, Am, D, Em

Chords- 
C: (x32010)
e|-----0---------------------------------|
B|-----1---------------------------------|
G|-----0---------------------------------|
D|-----2---------------------------------|
A|-----3---------------------------------|
E|-----x---------------------------------|

G: (320003)
e|-----3---------------------------------|
B|-----0---------------------------------|
G|-----0---------------------------------|
D|-----0---------------------------------|
A|-----2---------------------------------|
E|-----3---------------------------------|

Am: (002210)
e|-----0---------------------------------|
B|-----1---------------------------------|
G|-----2---------------------------------|
D|-----2---------------------------------|
A|-----0---------------------------------|
E|-----0---------------------------------|

D: (xx0232)
e|-----2---------------------------------|
B|-----3---------------------------------|
G|-----2---------------------------------|
D|-----0---------------------------------|
A|-----x---------------------------------|
E|-----x---------------------------------|

Em: (022000)
e|-----0---------------------------------|
B|-----0---------------------------------|
G|-----0---------------------------------|
D|-----2---------------------------------|
A|-----2---------------------------------|
E|-----0---------------------------------|

Song:
C, G, Am, D, Em
C, G, Am, D, Em

It keeps repeating this pattern the entire way through.  For the last seconds of 
the song as it fades out, the changing stops and it stays on Em.
Tap to rate this tab
 
# A B C D E F G H I J K L M N O P Q R S T U V W X Y Z