Song name
# A B C D E F G H I J K L M N O P Q R S T U V W X Y Z

Moby - Jltf chords

Highlighted       Show chord diagrams
Moby - JLTF
 	
Verse:
   E            Bm            A            E
E:----------------------------------------------------|
B:-------9---------------15------------14--------9----|
G:-----9--------------16------------14---------9------|
D:---9-------------16------------14----------9--------|
A:-7------------14------------12-----------7----------|
E:----------------------------------------------------|

Chorus:
   Fm           A            E         B                  Fm  A  E  B  Bm  
E:----------------------------------------------------|   5   9  4  11 10
B:----------10-----------14--------9------------16----|or 7  10  5  12 12
G:-------11-----------14---------9-----------16-------|   6   9  4  11 11
D:----11-----------14----------9----------16----------|   4   7  2  9  9
A:--9-----------12-----------7---------14-------------|
E:----------------------------------------------------|D-shape(easier
                                                  for acoustic guitars)

E  Bm  A  E  x2
Fm A   E  B  x2

E
We heard the rain on the window
Bm
Like a sinful waste of time
A
We heard the sirens' wailing
E
Like the world had lost it's smile
E
We spend our days together
Bm
Hiding far from everything
A
Oh we knew it was over
E
When the summer turned to spring

Fm
All the words we said
A
All the time we spent
E
Does it mean nothing
B
Does it mean nothing

All the words we said
All the time we spent
Does it mean nothing
Does it mean nothing

We heard the rain on the window
Like a sinful waste of time
We heard the sirens' wailing
I knew they'd come for you
We spend our days in heaven
Dying following everything
Oh we knew it was over
When the needle didn't stick

All the words we said
All the time we spent
Does it mean nothing
Does it mean nothing

All the words we said
All the time we spent
Does it mean nothing
Does it mean something

Does it mean something x8
B(B A G#m)
Fm E B
Tap to rate this tab
# A B C D E F G H I J K L M N O P Q R S T U V W X Y Z