Song name
# A B C D E F G H I J K L M N O P Q R S T U V W X Y Z

Moby - Everloving tab

Em
|------------------------------------------------|
|------------------------------------------------|
|---------------0--------------------0-----------|
|------2-----------2--------2-----------2--------|
|---------2-----------2--------2-----------2-----|
|-0----------0-----------0--------0-----------0--|

Em
|------------------------------------------------|
|------------------------------------------------|
|-0-------------0-----------0-----------0--------|
|------2-----------2-----------2-----------2-----|
|---------2-----------2-----------2-----------2--|
|------------0-----------0-----------0-----------|

C
|------------------------------------------------|
|------1--------------------1--------------------|
|---------0--------0-----------0--------0--------|
|------------0--------0-----------0--------0-----|
|-3-------------3--------3-----------3--------0--|
|------------------------------------------------|

G
|------------------------------------------------|
|---------------0-----------0--3-----------0-----|
|------------------0--------------0--------------|
|------0--------------0--------------0-----------|
|---------2--------------------------------------|
|-3----------3-----------3--------------3-----3--|



Em
|-----------------------------------------------|
|-----------------------------------------------|
|---------------0-------------0-----------------|
|------2-----------2-------------2--------2-----|
|---------2-----------2-------------2--------2--|
|-0----------0-----------0-------------0--------|

Em
|-------------------------------------------------|
|-------------------------------------------------|
|----0-----------0-----------0--------------------|
|-------2-----------2-----------2--------2--------|
|----------2-----------2-----------2--------2-----|
|-0-----------0-----------0-----------0--------0--|

C
|-------------------------------------------------|
|----------------1-----------1--------------------|
|-------0-----------0-----------0--------0--------|
|----------0-----------0-----------0--------0-----|
|-3-----------3-----------3-----------3--------0--|
|-------------------------------------------------|

G
|------------------------------------------------|
|---------------0--------------------0-----------|
|------------------0-----------------------0-----|
|------0--------------0-----0--------------------|
|---------2--------------------2--------------0--|
|-3----------3-----------3--------3-----3--------|



Am
|------------------------------------------------|
|---------------1--------------------1-----------|
|------2-----------2--------2-----------2--------|
|---------2-----------2--------2-----------2-----|
|-0----------0-----------0--------0-----------0--|
|------------------------------------------------|

Em
|---------------------------------------------|
|---------------------------------------------|
|---------------0--------------------0--------|
|------2-----------2--------2-----------2-----|
|---------2-----------2--------2-----------2--|
|-0----------0-----------0--------0-----------|

Em
|----------------------------------------------------|
|----------------------------------------------------|
|-------------0--------------------0-----------------|
|----2-----------2--------2-----------2--------2-----|
|-------2-----------2--------2-----------2--------2--|
|-0--------0-----------0--------0-----------0--------|


2x
D
|---------------2--------------------2-----------|
|------3-----------3--------3-----------3--------|
|---------2-----------2--------2-----------2-----|
|-0----------0-----------0--------0-----------0--|
|------------------------------------------------|
|------------------------------------------------|

Am
|------------------------------------------------|
|---------------1--------------------1-----------|
|------2-----------2--------2-----------2--------|
|---------2-----------2--------2-----------2-----|
|-0----------0-----------0--------0-----------0--|
|------------------------------------------------|

Em
|-----------------------------------------------|
|-----------------------------------------------|
|---------------0----------------------0--------|
|------2-----------2----------2-----------2-----|
|---------2-----------2----------2-----------2--|
|-0----------0-----------0----------0-----------|

Em
|-----------------------------------------------|
|-----------------------------------------------|
|---------------0-------------------0-----------|
|-------2----------2--------2----------2--------|
|----------2----------2--------2----------2-----|
|-0-----------0----------0--------0----------0--|



F
|---------------------------------------------|
|---------------------------------------------|
|---------------1--------------------1--------|
|------3-----------3--------3-----------3-----|
|---------3-----------3--------3-----------3--|
|-1----------1-----------1--------1-----------|

F
|----------------------------------------------------|
|----------------------------------------------------|
|-------------1--------------------1-----------------|
|----3-----------3--------3-----------3--------3-----|
|-------3-----------3--------3-----------3--------3--|
|-1--------1-----------1--------1-----------1--------|


[CORE]

   [Em] [C] [G]
   [Em] [C] [G] [Am] [Em]
2x [D] [Am] [Em]
2x [F] [Em]
4x [D] [Am] [Em]


[OUTRO]

Em
|-------------------------------------|
|-3-----------0-----------------------|
|----0-----------0--------0-----------|
|-------2-----------2--------2--------|
|----------2-----------2--------2-----|
|----------------------------------0--|

Em
|-------------------------------------------------|
|-------------------------------------------------|
|-------------0--------------------0--------------|
|----2-----------2--------2-----------2-----2-----|
|-------2-----------2--------2-----------------2--|
|-0--------0-----------0--------0--------0--------|

Em
|-------------------0----------------|
|------------------------------0-----|
|-----0------------------------------|
|--------2--------2---2-----2-----2--|
|-----------2------------------------|
|--0-----------0---------0-----------|

Em
|----------------------------------------------------|
|----------------------------0-----------0-----------|
|----------------0-----------------------------------|
|-------2-----------2-----------2-----------2--------|
|----2--------2--------2-----------2-----------2-----|
|-0--------0--------------0-----------0-----------0--|

Em
|--0-----------0--------0--------0-----------------|
|-----0-----------0-----------------0--------0-----|
|--------0--------------------------------------0--|
|-----------2-----------------2-----------2--------|
|--------------------2-----------------------------|
|--------------------------0-----------0-----------|
Tap to rate this tab
 
# A B C D E F G H I J K L M N O P Q R S T U V W X Y Z