Mod - Back In Business tab

Intro: Bass 2x
g|-12--13--15--13--12-------------------------------------------------------|
d|---------------------13--12-----------------------------------------------|
a|-----------------------------13--15--12-----------------------------------|
E|--------------------------------------------------------------------------|
   Verse: Bass 
g|-----------------------------------------------------------|
d|------7-----5----------------------------------------------|
a|---------------3~~-----------------------------------------|
E|-5-5----3-3------------------------------------------------|



    guitar: 

e|-5-5---3-3--|22----------------------------------------------------7------|
b|-6-66~-4-44~|33-3-2---------------------------------------------9-7-10----|
g|------------|------3-2--o-o-2-3-3-2-3-2-o-o--o---2--2--5\7-b9~~-----------|
d|------------|--------------------------o-o------3-3---5-------------------|
a|------------|-------------------------------------------------------------|
E|------------|-------------------------------------------------------------|

                    2x  | D   A  G  C

e|-10-7/5-5---5----5----|-3---5--3--3---------------------------------------|
b|----------7---6--6----|-2---5--3--4---------------------------------------|
g|----------------------|-3---6--4--4---------------------------------------|
d|----------------------|-0---7--5--4---------------------------------------|
a|----------------------|-----7--5--3---------------------------------------|
E|----------------------|-----5--3--3-------------------------------..------|




Solo Guitar:

e|--12b-12------------15----------------------------------------------------|
B|---------13----pb15------15--13--15----13---------------------------------|
G|------------------------------------14------------------------------------|
D|--------------------------------------------15---13~----------------------|
A|--------------------------------------------------------------------------|
E|--------------------------------------------------------------------------|
Tap to rate this tab
 
# A B C D E F G H I J K L M N O P Q R S T U V W X Y Z