Song name
# A B C D E F G H I J K L M N O P Q R S T U V W X Y Z

Moda - Favola chords

FAVOLA (Modà)
edit by QUIQUO (Marco)  /  http://quiquo.altervista.org
(su Quiquo tutte le diteggiature degli accordi, la lavagna di Archimede per 
cambiare la tonalità, separare il testo dagli accordi e scegliere il layout di stampa) 

capo al 3° tasto

INTRO:
  [SOL]                             [RE/FA#]
e---------------------------------|---------------------------------|
B---------------1---0-------------|---------------1---0-------------|
G-------0---2-----------0---2---2-|-------0---2-----------0---2---0-|
D---0-----------------------------|---0-----------------------------|
A-----2---------------------------|-----0---------------------------|
E-3-------------------------------|-2-------------------------------|

  [MIm7]                           [DOsus2]       [RE7sus4]
e---------------------------------|---------------------------------|
B---------------1---0-------------|-1-0-------------1-0-------------|
G-------0---2-----------0---------|-------0---------------0---2---0-|
D---0-----------------------0---0-|-----------0---0-0---------------|
A-----2---------------------------|-3-------------------------------|
E-0-------------------------------|---------------------------------|

[SOL] Ora vi racconto una storia [RE/FA#] che 
farete fatica a cred[MIm7]re, perché parla di una 
princi-[DOsus2]pessa e di un [RE7sus4] cavaliere [SOL] che 
in sella al suo cavallo [RE/FA#] bianco entrò nel bosco 
[MIm7] alla ricerca di un senti-[DOsus2]mento 
che tutti chia[RE7sus4]mavano amore[SOL]_ 
Prese un sentiero che por[RE/FA#]tava 
a una cascata dove [MIm7] l'aria 
era pura come il [DOsus2] cuore di quella 
fan[RE7sus4]ciulla che can[SOL]tava 
e se ne stava coi co[RE/FA#]nigli 
i pappagalli verdi e [MIm7] gialli 
come i petali di quei [DOsus2] fiori che 
por[RE7sus4]tava tra i ca[SOL]pelli 
Na na na na na [RE/FA#] na na...[MIm7][DOsus2][RE7sus4][SOL]

[LAm] Il cavaliere scese [FA] dal suo cavallo bianco 
[DO] e piano piano le si avvicinò 
[SIm] La guardò per un se__[LAm]condo poi le sorrise 
[SOL/SI][DO] e poi pian piano iniziò a dirle [RE7sus4]
queste [RE7] dolci parole: 

[SOL] Vorrei essere il raggio di sole [RE/FA#] che 
ogni giorno ti viene a svegliare [MIm7] per 
farti respi[DOsus2]rare e farti [RE7sus4] vivere di [SOL] me 
Vorrei essere la prima stella che 
ogni sera vedi brillare perché 
così i tuoi occhi sanno che ti guardo 
e che sono sempre con te 
Vorrei essere lo specchio che ti parla 
e che a ogni tua domanda 
ti risponda che al mondo 
tu sei sempre la più bella 
Na na na na na [RE/FA#] na na...[MIm7][DOsus2][RE7sus4][SOL] 

[LAm] La principessa lo guar[FA]dò senza dire parole 
[DO] e si lasciò cadere tra le sue braccia 
[SIm] Il cavaliere la portò con [LAm] se sul suo cavallo bianco 
[SOL/SI][DO] e seguendo il vento le can[RE7sus4]tava intanto 
questa [RE7] dolce canzone: 

(ripeti x2) 
[SOL] Vorrei essere il raggio di sole [RE/FA#] che 
ogni giorno ti viene a svegliare [MIm7] per 
farti respi[DOsus2]rare e farti [RE7sus4] vivere di [SOL] me 
Vorrei essere la prima stella che 
ogni sera vedi brillare perché 
così i tuoi occhi sanno che ti guardo 
e che sono sempre con te 
Vorrei essere lo specchio che ti parla 
e che a ogni tua domanda 
ti risponda che al mondo 
tu sei sempre la più bella 
Na na na na na na na na na…

(BRIDGE+2)
[LA][MI] [FA#m7][REsus2][MI7sus4][LA]


********************
capo al 3° tasto
[RE7(-5)sus4]=xx0013
[DOsus2]=x30010
[RE/FA#]=200232 PxxIAM
Tap to rate this tab
# A B C D E F G H I J K L M N O P Q R S T U V W X Y Z