Song name
# A B C D E F G H I J K L M N O P Q R S T U V W X Y Z

Moddi - Smoke tab

This was all copied - with some minor layout-adjustments - straight from 
(http://www.ultimate-guitar.com/forum/showthread.php?t=1206212), where maladie 
posted it. All credits 
to him. Just thought it'd be useful to have it submitted as a tab... Enjoy!

No capo, standard tuning


E|--------1p0--1---------------------1p0---1-----------------|
B|------0---------3----0-3-------0-----------3----0-1--------|
G|----2------2------2------2---2-------2-------2-------0-----|
D|--0------------------------0-------------------------------|
A|-----------------------------------------------------------|
E|-----------------------------------------------------------|


E|---------3p0---3----------------------3p0-----3---------------|
B|-------0------------1---0-1--------0-------------1-----0-1----|
G|-----2------2---------2-----2---2---------2---------2------0--|
D|--------------------------------------------------------------|
A|---0--------------------------0-------------------------------|
E|--------------------------------------------------------------|


E|-----------1p0---1---------------------1p0---1----------------|
B|--------0-----------3---0--3--------0-----------3----0-1------|
G|-----2--------2-------2-------2---2------2--------2------0----|
D|--0-----------------------------0-----------------------------|
A|--------------------------------------------------------------|
E|--------------------------------------------------------------|

E|---------3p0---3------------------------------0---------------|
B|-------0------------1---0-1--------0--1---------1----0-1------|
G|-----2------2---------2-----2---2---------2-------2------0----|
D|--------------------------------------------------------------|
A|---0--------------------------0-------------------------------|
E|--------------------------------------------------------------|



(chords are rough, but they give at least some idea; easy enough to figure out by ear)

It's there, it's where, it begins, Dm
and it's calling your name Am
You've been down there all night now, Dm
in a state that I cannot explain Am
Behind grey curtains of ash Dm
from a word it was burn Am
Now smoke rises high from your head, Dm F
morning mist laying dead Am
On naked shoulders a C
- no flowers, no thorns Dm F Am C


Hey love, stay the **** out of my home Dm
I've told you a thousand times Am
'Cause my brain tells me you're dangerous, and my belly says Dm
you're just too hard to find Am
A kiss from sullen lips of ashes Dm
will probably blow this whole winter away Am
But something tells me this is just not real, Dm F
something tells me this smoke is here to stay Am
It was supposed to be an endless day Dm C
Dm C Am G


Listen to this video to get rhythm right, it's easier than the studio version: 
http://youtu.be/xub1vsM5VHA (he has capo on 5th here, but... ignore that ;))

Moddi: http://www.moddi.no/
Tap to rate this tab
# A B C D E F G H I J K L M N O P Q R S T U V W X Y Z