Song name
# A B C D E F G H I J K L M N O P Q R S T U V W X Y Z

Modena City Ramblers - Fischia Il Vento tab

Tabed by:Banano

Title	:Fischia il vento
Band	:Modena City Ramblers


intro

E --------------------|------1--2-1---------|------1-------------|------------------|
B -------------1-2--1-|-2--4---------4-2--1-|-2--4-------------1-|-2----1--2-1------|
G -----3--2-3---------|---------------------|---------3-3-3-3----|----3---------3-1-|
D --3-----------------|---------------------|--------------------|------------------|
A --------------------|---------------------|--------------------|------------------|
E --------------------|---------------------|--------------------|------------------|


E --------------------|------1-------1-4---|-4--2-1-------------|---------1--1--|
B -------------1-2--1-|-2--4----4-2--------|---------------2--1-|---------------|
G -----3--2-3---------|--------------------|---------3-3-3------|-3--1-3--3--1--|      x 2
D --3-----------------|--------------------|--------------------|---------3--3--|
A --------------------|--------------------|--------------------|---------1--3--|
E --------------------|--------------------|--------------------|---------------|

E ------------6--6-|------6--8-9--11-9--8-|-6--6--6-6--------|--------------6------|
B -----6-6--9------|-6--9-----------------|-------------6--6-|-6----6--8-9----9--8-|
G -----------------|----------------------|------------------|----8----------------|
D -----------------|----------------------|------------------|---------------------|
A -----------------|----------------------|------------------|---------------------|
E -----------------|----------------------|------------------|---------------------|

E -----------6--6-|--------6--8-9--11-9--8-|-6--6--6-6----6--9-|-8--6----8-6---6----|
B -6--8-9--6------|---6--9-----------------|------------9------|------9-------------|
G ----------------|------------------------|-------------------|--------------------|
D ----------------|------------------------|-------------------|--------------------|
A ----------------|------------------------|-------------------|--------------------|
E ----------------|------------------------|-------------------|--------------------|


E --6---8---9------|-8-----8-6------|-----6-------------|------1--3-4--1------|
B ----------9------|-9----------6-8-|-9-------9--6------|-2--4-----------4--1-|
G ----------10-----|-8--------------|--------------8--5-|---------------------|
D ----------11-----|-10-------------|-------------------|---------------------|
A ----------11-----|-11-------------|-------------------|---------------------|
E ----------9------|-8--------------|-------------------|---------------------|

E ----------------|------------1--6---|--6----1--2-1---------|-------------------|------|
B -2--1-----------|-----1-2--4--------|-----4----------------|-2--1-------6--6---|-6----|
G ------3--1----3-|--3----------------|---------------3-3--3-|------3--1--6------|------|
D -----------3----|--3----------------|----------------------|------------8------|-8----|
A ----------------|-------------------|----------------------|------------8--8---|-8----|
E ----------------|-------------------|----------------------|------------6--6---|-6----|
Tap to rate this tab
 
# A B C D E F G H I J K L M N O P Q R S T U V W X Y Z