Song name
# A B C D E F G H I J K L M N O P Q R S T U V W X Y Z

Moderatto - No Podras tab

NO PODRAS - Moderatto
-------------------------------------------------------------------------------
Tabbed by: tortulo
Email: jameskmaynard@hotmail.com

Ok this is my first tab but i think it sounds ok. enjoy!

Tuning: EADGBe

Intro:

e|----------------------------------------------------------------------------------------------|          
B|----------------------------------------------------------------------------------------------|
G|------------7------5-------------------------------7------5-----------5~~~--------------------|
D|---2-----7--7---5--5-----7-----7/8/7\\5---2-----7--7---5--5-----------------7-----7/8/7\\5----|
A|---2-----7--5---5--3-----7-----7/8/7\\5---2-----7--5---5--3-----5//7--------7-----7/8/7\\5----|
E|---0-----5--5---3--3-----5----------------0-----5------3--------------------5-----------------|

e|----------------------------------------------------------------------------------------------|
B|----------------------------------------------------------------------------------------------|
G|------------7------5-------------------------------7------5-----------5~~~--------------------|
D|---2-----7--7---5--5-----7-----7/8/7\\5---2-----7--7---5--5-----------------7-----7/8/7\\5----|
A|---2-----7--5---5--3-----7-----7/8/7\\5---2-----7--5---5--3-----5//7--------7-----7/8/7\\5----|
E|---0-----5--5---3--3-----5----------------0-----5------3--------------------5-----------------|

During the verse, let the bass rolls, then play Intro again

Bridge:

e|----------------------------------------------------------------------------------------------------|
B|----------------------------------------------------------------------------------------------------|
G|----------------------------------------------------------------------------------------------------|
D|--5-----------------------5--------------------------5---------------------5------------------------|
A|--5------------1~---------5-----1~-----1~------------5------------1~-------5-----1~-----1~----------|
E|--3--3--1---3-------3--1--3--3------3-------3--1--3--3--3--1---3-----3--1--3--3------3------3--1/3--|

Chorus:

        Cada momento..... (get the time for this muting =P)

  P.M.      
e|-----------------------------|
B|-----------------------------|
G|---------------------2---7---|
D|-5---------5----2----2---7---|  <---- keep rakin´ & palmmuttin´
A|-5--(x?)---5----2----0---5---|
E|-3---------2----0------------|
   G        G/F#  Em   A   D
  
Fill 1:

e|-------------------------------|
B|--------/8---7---5---7\--------|
G|--------/7---7---7---7\--------|
D|-------------------------------|
A|-------------------------------|
E|-------------------------------|


Si estoy llorando... ( here repeat the Chorus and Fill 1 parts )


++++Now the 2nd part of the Chorus:

No podrás olvidar....

    P.M.   P.M 
e|----------------------------------|
B|----------------------------------|
G|---5------4----9-9---7-7---5------|
D|---5------4----9-9---7-7---5------| <----- it repeats three times,then  
A|---3------2----7-7---5-5---3------|
E|----------------------------------|                                       
     C      B     E     D    C


    P.M.  
e|-------------------|
B|-------------------|
G|---5----7----------|
D|---5----7----------| <----- and now play the Bridge part
A|---3----5----------|
E|-------------/3----|


Then it goes 1 step up:

e|---------------------------------------|                                                           
B|---------------------------------------|
G|----------7---6---11-11---9--9---7-----|
D|---5//7---7---6---11-11---9--9---7-----| <---- it repeats three times, then
A|---5//7---5---4---9--9----7--7---5-----|
E|---3//5--------------------------------|                                       
            D   C#    F#      E    D

e|-----------|                                                           
B|-----------|
G|--9--------|
D|--9---7----| <---- and that´s it!
A|--7---7----|
E|------5----| 
    E   A                                      

Well these are the parts of the song, now order it; it´s easy to figure it out.
Actually I´m figuring out the Solo right now. I´ll post it later.

Saludos!!!


| /  slide up
| \  slide down
| h  hammer-on
| p  pull-off
| ~  vibrato
| +  harmonic
| x  Mute note
===============================================================================
Tap to rate this tab
 
# A B C D E F G H I J K L M N O P Q R S T U V W X Y Z