Song name
# A B C D E F G H I J K L M N O P Q R S T U V W X Y Z

Moderatto - No Hay Otra Manera tab

Hola a todos, aqui tienen el solo de esta cancion, espero la
la disfruten. Los acordes los pueden sacar de la otra version
que está aqui en LaCuerda.
Cualquier duda o corrección la pueden mandar a mi correo.


SOLO minuto 2:41
e-----------------------------------------------------|
B-----10b-10b~---10b-10b-10b---10-8-10----------------|
G-7h9----------------------------------7~-------------|
D-----------------------------------------------------|
A-----------------------------------------------------|
E-----------------------------------------------------|

e------------------12-10----10b12-10------------------|
B-----8-10b12---12-------12------------10b-10b-10b----|
G-7-9-------------------------------------------------|
D-----------------------------------------------------|
A-----------------------------------------------------|
E-----------------------------------------------------|

e-----------------------------------------------------|
B-10-8-10b12---10-8-10b12-----------------------------|
G-----------------------------------------------------|
D-----------------------------------------------------|
A-----------------------------------------------------|
E-----------------------------------------------------|

e-/10-10-12-10----------------------------------------|
B--------------13-12-13-12-13-12-13-15-15~------------|
G-----------------------------------------------------|
D-----------------------------------------------------|
A-----------------------------------------------------|
E-----------------------------------------------------|

e-17b19-17--17b19r17--15-17-17/19---------------------|
B-----------------------------------------------------|
G-----------------------------------------------------|
D-----------------------------------------------------|
A-----------------------------------------------------|
E-----------------------------------------------------|

e-----------------------------------------------------|
B-10b-10/8--------------------------------------------|
G----------9/7-7/5-5/4-4/2-2/0-0/2-2b4~---------------|
D-----------------------------------------------------|
A-----------------------------------------------------|
E-----------------------------------------------------|

e----------------7-8-10-12-14-15----------------------|
B---------7-8-10--------------------------------------|
G-4-5-7-9---------------------------------------------|
D-----------------------------------------------------|
A-----------------------------------------------------|
E-----------------------------------------------------|
Tap to rate this tab
 
# A B C D E F G H I J K L M N O P Q R S T U V W X Y Z