Song name
# A B C D E F G H I J K L M N O P Q R S T U V W X Y Z

Moderatto - Me Gusta Vivir De Noche tab

Moderatto: me gusta Vivir de Noche (en concierto)
--------------------------------------------------------------
--------------------------------------------------------------

Tabbed by: Alex Ferez
Email: alfredi85@hotmail.com


Esta rola se las dedico a toda la bola de locos y en especial 
a mi tocayo Alex Hdez suerte entodo wey...  



Tuning - Drop 1/2 a step


                                                                            
Intro:
:-------------------------------------:
:-------------------------------------:
:-------------------------------------:
:-------------------------------------:
:-------------------------------------:
:--3-2-0----------3-2-0---------------:

:-------------------------------------:
:-------------------------------------:
:-------------------------------------: 
:----2----5----7----9----5----4----2--:
:----2----5----7----9----5----4----2--:
:----0----3----5----7----3----2----0--:


:-------------------------------------------------:
:-------------------------------------------------:
:-------------------------------------------------: 
:----2----5----7----9--9-9-9-9-9-----5----4----2--:
:----2----5----7----9--9-9-9-9-9-x4--5----4----2--:
:----0----3----5----7--7-7-7-7-7-----3----2----0--:

:--0-0--0--0-0--0--------------------:
:--0-0--0--0-0--0--------------------:
:------------------------------------: x2
:------------------------------------:
:------------------------------------:
:-----------------3-2-0--------------:

En esta vida........      Si ustedes gustan..
:---------------------------------------:
:----------------x2---------------------:
:---------------------------------------: 
:--pm--2----5----4-9------9-------------:
:--pm--2----5----4-9------9-------------:
:--pm--0----3----2-7------7-------------:

:------------------------:
:------------------------:
:------------------------: 
:--2-5-4-2---------------:x3
:--2-5-4-2---------------:
:--0-3-2-0---------------:

La buena vida........      Viva la noche..
:----------------------------------------:
:----------------x2----------------------:
:----------------------------------------: 
:--pm--2----5----4-9-------9-------------:
:--pm--2----5----4-9-------9-------------:
:--pm--0----3----2-7-------7-------------:

:------------------------:
:------------------------:
:------------------------: 
:--2-5-4-2---------------:x3
:--2-5-4-2---------------:
:--0-3-2-0---------------:


Yo soy mick marcy........  Soy pachangero
:--------0----------------------------:
:--------0-------x2-------------------:
:-------------------------------------: 
:--pm--2----5----4-9--------9---------:
:--pm--2----5----4-9--------9---------:
:--pm--0----3----2-7--------7---------:

:------------------------:
:------------------------:
:------------------------: 
:--2-5-4-2---------------:x1
:--2-5-4-2---------------:
:--0-3-2-0---------------:

Coro
:-------------------------------------------:
:-------------------------------------------:
:--------------------------------pm-pm------: 
:----9----7----2---------9--9--9-9999999999-:
:----9----7----2--x2-----9--9--9-9999999999-:
:----7----5----0---------7--7--7-7777777777-:


:---------------------------------------------------:
:---------------------------------------------------:
:---------------------------------------------------: 
:----2----5----7------9--9-9-9-9-9-----5----4----2--:
:----2----5----7-x2---9--9-9-9-9-9-x4--5----4----2--:
:----0----3----5------7--7-7-7-7-7-----3----2----0--:

:--0-0--0--0-0--0--------0-0-0-------:
:--0-0--0--0-0--0--------0-0-0-------:
:------------------------------------: 
:------------------------------------:
:------------------------------------:
:-----------------3-2-0--------------:


Yo soy bajillo...       Soy pachangero 
:-------------------------------------------:
:----------------x2-------------------------:
:-------------------------------------------: 
:--pm--2----5----4-9--------9---------------:
:--pm--2----5----4-9--------9---------------:
:--pm--0----3----2-7--------7---------------:

:------------------------:
:------------------------:
:------------------------: 
:--2-5-4-2---------------:
:--2-5-4-2---------------:
:--0-3-2-0---------------:

Coro
:-------------------------------------------:
:-------------------------------------------:
:--------------------------------pm-pm------: 
:----9----7----2---------9--9--9-9999999999-:
:----9----7----2--x2-----9--9--9-9999999999-:
:----7----5----0---------7--7--7-7777777777-:


solo


Coro
:-------------------------------------:
:-------------------------------------:
:-------------------------------------: 
:----9--10--11--12---13---14----------:
:----9--10--11--12---13---14----------:
:----7---8---9--10---11---12----------:

Tap to rate this tab
 
# A B C D E F G H I J K L M N O P Q R S T U V W X Y Z