Song name
# A B C D E F G H I J K L M N O P Q R S T U V W X Y Z

Modern Baseball - The Weekend chords

Highlighted       Show chord diagrams
"The Weekend"
By Modern Baseball
Album: Sports
Tabbed by Aukes57

This is played with capo on 1.
There is also a lead guitar part throughout the song that I am working on, but if you 
have it figured out feel free to add it in.

G
Though I seem cool, calm and collected
Making my way to Hipster with Glasses
Cadd9
Was a little more than just nerve wrackin'
Kinda' just counted on her to turn me into goo

G
Praise Whatever it ended with a smile
Cause for a bit, a tad, a little while
Cadd9
I expected you two, to save the day with sly remarks
Like "he's so cute" and "whatever you wants"

G
Though the white jacket didn't fit
The friends I came with did, perfectly
Cadd9
Snugged right to my body
Like sad movies and late night drinks

G
Could've guessed by the end of the hour
There was more than just a little smile on my face
Cadd9
Covered in custard and cookies and cream, pissed off I had to leave
But all has to end.

G
You got a smile that could light this town and we might need it
Cadd9
Cause it gets dark around here, real dark around here
G
Most of my old friends I can only stand for the weekend
Cadd9
But that doesn't apply here, doesn't apply here

G
The day started with a bloody drip
And a taste on my lips that was a lot less than desired
Cadd9
Awkward moments to the side
Not all expiring fast

G
A tank top that didn't cover a thing
And a zipped down hoodie, zipped to the bottom
Cadd9
Had us laughing every time
No matter how many chest hairs there were in sight

G
You got a smile that could light this town and we might need it
Cadd9 (one strum)
Cause it gets dark around here, real dark around here
G
Most of my old friends I can only stand for the weekend
Cadd9
But that doesn't apply here, doesn't apply here

Lead Guitar at the end
E|------------------------------|
B|------------------------------|
G|------------------------------|
D|--10-10-8-8-6-6-6--6----------|
A|------------------8-8-6-6-6-6-|
E|------------------------------|

E|-----------------------------------------|
B|-----------------------------------------|
G|-----------------------------------------|
D|--10-10-8-8-6-6-6-8/11-11-11-10-10-10-10-|
A|-----------------------------------------|
E|-----------------------------------------|

E|---------------------------------------|
B|---------------------------------------|
G|---------------------------------------|
D|--10-10-8-8-6-6-6--6---------------6-6-|
A|------------------8-8-6-6-6-6-8-6-8----|
E|---------------------------------------|
Tap to rate this tab
 
# A B C D E F G H I J K L M N O P Q R S T U V W X Y Z