Song name
# A B C D E F G H I J K L M N O P Q R S T U V W X Y Z

Modern Baseball - Hours Outside In The Snow tab

-------------------------------------------------------------------------------
                             Hours Outside in the snow - Modern Baseball
-------------------------------------------------------------------------------
Tabbed by: Supersoakerman
E-mail: Supersoakerman@gmail.com

Tuning: Standard

Intro "I spent all of christmas eve fake angry.."

e|----x-----x------x-----x---------------------------|
B|----4~----4~-----4~----4~--------------------------|
G|----5~----5~-----5~----5~--------------------------| 2X
D|----6~----6~-----6~----6~--------------------------|
A|----6~----4~-----6~----4~--------------------------|
E|----4~-----------4~--------------------------------|

Verse 1 "I spent all of christmas eve trying to get warmer.."

Guitar 1

e|---xxxxxxxx----|
B|---44444444----|
G|---55555555----|
D|---66666666----| Entire time of verse
A|---66666666----|
E|---44444444----|

Guitar 2

e|---xxxxxxxx--xxxxxxxx------------xxxxxxxx------|
B|---44444444--44444444--44444444--44444444------|
G|---55555555--55555555--55555555--55555555------| 4X
D|---66666666--66666666--66666666--66666666------|
A|---66666666--44444444--44444444--44444444------|
E|---44444444------------66666666----------------|

Chorus "You might run.."

e|---x--x--x---x--x--x-------------x--x--x-------|
B|---4~-4~-4~--4~-4~-4~--4~-4~-4~--4~-4~-4~------|
G|---5~-5~-5~--5~-5~-5~--5~-5~-5~--5~-5~-5~------|   1X
D|---6~-6~-6~--6~-6~-6~--6~-6~-6~--6~-6~-5~------|
A|---6~-6~-6~--4~-4~-4~--4~-4~-4~--4~-4~-4~------|
E|---4~-4~-4~------------6~-6~-6~----------------|

Verse 2 "And though I'd like to say more.."

Guitar 1

e|---xxxxxxxx--xxxxxxxx------------xxxxxxxx------|
B|---44444444--44444444--44444444--44444444------|
G|---55555555--55555555--55555555--55555555------|  3X
D|---66666666--66666666--66666666--66666666------|
A|---66666666--44444444--44444444--44444444------|
E|---44444444------------66666666----------------|

Guitar 2

e|------------------------------------|
B|------------------------------------|
G|---------6/888-x888-x888-x888-------|
D|------------------------------------| Entire time of verse
A|------------------------------------|
E|------------------------------------|

Chorus "You might run.."

e|---x--x--x---x--x--x-------------x--x--x-------|
B|---4~-4~-4~--4~-4~-4~--4~-4~-4~--4~-4~-4~------|
G|---5~-5~-5~--5~-5~-5~--5~-5~-5~--5~-5~-5~------|   2X
D|---6~-6~-6~--6~-6~-6~--6~-6~-6~--6~-6~-5~------|
A|---6~-6~-6~--4~-4~-4~--4~-4~-4~--4~-4~-4~------|
E|---4~-4~-4~------------6~-6~-6~----------------|

Bridge/Outro

e|---xxxxxxxx--xxxxxxxx------------xxxxxxxx------|
B|---44444444--44444444--44444444--44444444------|
G|---55555555--55555555--55555555--55555555------|  4X
D|---66666666--66666666--66666666--66666666------|
A|---66666666--44444444--44444444--44444444------|
E|---44444444------------66666666----------------|

Last Phrase

e|----x-----x------x-----4~----|
B|----4~----4~-----4~----4~----|
G|----5~----5~-----5~----5~----|
D|----6~----6~-----6~----6~----|
A|----6~----4~-----4~----4~----|
E|----4~-----------6~----------|

************************************

| /   slide up
| \   slide down
| h   hammer-on
| p   pull-off
| ~   vibrato
| +   harmonic
| x   Mute note
| b   Bend
| pb  Pre-bend
| br  Bend release
| pbr Pre-bend release
| brb Bend release bend

************************************
Tap to rate this tab
# A B C D E F G H I J K L M N O P Q R S T U V W X Y Z