Song name
# A B C D E F G H I J K L M N O P Q R S T U V W X Y Z

Modern Baseball - I Think You Were In My Profile Picture Once tab

Standard Tuning

Tabbed by Alex Merrick

Mostly correct I think. There's a few variations in the second verse.

First Verse
e|---------------------------------------------------------------------------|
B|---------------------------------------------------------------------------|
G|---------------------------------------------------------------------------|
D|--------3--------3--------3--------3--------3--------3--------3--------3---|
A|-----4--------4--------4--------4--------4--------4--------4--------4------|
E|--2--------2--------2--------2--------2--------2--------2--------2---------|

e|---------------------------------------------------------------------------|
B|---------------------------------------------------------------------------|
G|--------1--------1--------1--------1--------1--------1--------1--------1---|
D|-----3--------3--------3--------3--------3--------3--------3--------3------|
A|--4--------4--------4--------4---------------------------------------------|
E|--------------------------------------2--------2--------2--------2---------|

e|---------------------------------------------------------------------------|
B|---------------------------------------------------------------------------|
G|--------1--------1--------1--------1--------1--------1--------1--------1---|
D|-----3--------3--------3--------3--------3--------3--------3--------3------|
A|--4--------4--------4--------4---------------------------------------------|
E|--------------------------------------2--------2--------2--------2---------|

e|---------------------------------------------------------------------------|
B|---------------------------------------------------------------------------|
G|--------1--------1--------1--------1--------6--------6--------6--------6---|
D|-----3--------3--------3--------3------------------------------------------|
A|--4--------4--------4--------4-----------4--------4--------4--------4------|
E|--------------------------------------6--------4--------2--------2---------|

e|---------------------------------------------------------------------------|
B|---------------------------------------------------------------------------|
G|--------6--------6--------6--------6--------6--------6--------6--------6---|
D|---------------------------------------------------------------------------|
A|-----4--------4--------4--------4--------4--------4--------4--------4------|
E|--6--------4--------2--------2--------6--------4--------2--------2---------|

e|---------------------------------------------------------------------------|
B|---------------------------------------------------------------------------|
G|--------6--------6---------------------------------------------------------|
D|---------------------------------------------------------------------------|
A|-----4--------4------------------------------------------------------------|
E|--2--------2---------------------------------------------------------------|

Second Verse

e|---------------------------------------------------------------------------|
B|--------2--------2--------2--------2--------2--------2--------2--------2---|
G|---------------------------------------------------------------------------|
D|-----3--------3--------3--------3--------3--------3--------3--------3------|
A|--4--------4--------4--------4---------------------------------------------|
E|--------------------------------------2--------2--------2--------2---------|

e|---------------------------------------------------------------------------|
B|--------2--------2--------2--------2--------2--------2--------2--------2---|
G|---------------------------------------------------------------------------|
D|-----3--------3--------3--------3--------3--------3--------3--------3------|
A|--4--------4--------4--------4---------------------------------------------|
E|--------------------------------------2--------2--------2--------2---------|

e|---------------------------------------------------------------------------|
B|---------------------------------------------------------------------------|
G|--------6--------6---------6--------6-------6--------6--------6--------6---|
D|---------------------------------------------------------------------------|
A|-----4--------4---------4--------4-------4--------4--------4--------4------|
E|--6--------4---------2--------2--------6--------4--------2--------2--------|

e|---------------------------------------------------------------------------|
B|---------------------------------------------------------------------------|
G|--------6--------6--------6--------6--------6--------6--6------------------|
D|---------------------------------------------------------------------------|
A|-----4--------4--------4--------4--------4--------4-----4------------------|
E|--6--------4--------2--------2--------6--------4--------2------------------|
Tap to rate this tab
 
# A B C D E F G H I J K L M N O P Q R S T U V W X Y Z