Song name
# A B C D E F G H I J K L M N O P Q R S T U V W X Y Z

Modern Baseball - Chl03k tab

-----------------------------------------------------------------------------
                             @chl03k - Modern Baseball
-----------------------------------------------------------------------------
Tuning: Half-Step Down - Most tabs here are in standard but I'm almost positive 
they play in half-step down and most of their songs are easier to play in that tuning.


Verse: x3
eb|---0-x--0-----0-x--0-----0-x--0-----0-x--0--|--|-0----------|
Bb|---0-x--0-----0-x--0-----0-x--0-----0-x--0--|--|-0----------|
Gb|--------------------------------------------|x3|-2----------|
Db|--------------------------------------------|--|-2----------|
Ab|-7---------6----------4----------2----------|--|-0----------|
Eb|--------------------------------------------|--|------------|

Lead over top that:
eb|--------------------------------|------------------------------------|
Bb|---12/10---7-9-7----9-7---12-12-|---12/10---7-9-7------10---9---9----|
Gb|--9------9-------9------9-------|-9-------9-------9--9----9---9---9--|
Db|--------------------------------|------------------------------------|
Ab|--------------------------------|------------------------------------|
Eb|--------------------------------|------------------------------------|

Segue to chorus:
eb|----------------------------------|
Bb|-0---0---0---0---0-0-0-0-0-0-0-0--|
Gb|-2---2---2---2---2-2-2-2-2-2-2-2--|
Db|-2---2---2---2---2-2-2-2-2-2-2-2--|
Ab|-0---0---0---0---0-0-0-0-0-0-0-0--|
Eb|----------------------------------|
  |                                  |
eb|----------------------------------|
Bb|-7---7---7---7---9-9-9-9-9-9-9-9--|
Gb|----------------------------------|
Db|----------------------------------|
Ab|----------------------------------|
Eb|----------------------------------|


Chorus: "I couldnt give a fuck whether you give a fuck or not"
eb|-0-0-0-0-0-0-0-0-0-0-0-0-0-0-0-0-0-0-0-0-0-0-0-0-0-0-0-0-0-0-0-0-|
Bb|-0-0-0-0-0-0-0-0-0-0-0-0-0-0-0-0-0-0-0-0-0-0-0-0-0-0-0-0-0-0-0-0-|
Gb|-9-9-9-9-9-9-9-9-9-9-9-9-9-9-9-9-2-2-2-2-2-2-2-2-2-2-2-2-2-2-2-2-|x4
Db|-9-9-9-9-9-9-9-9-9-9-9-9-9-9-9-9-2-2-2-2-2-2-2-2-2-2-2-2-2-2-2-2-|
Ab|-7-7-7-7-7-7-7-7-6-6-6-6-6-6-6-6-0-0-0-0-0-0-0-0-0-0-0-0-0-0-0-0-|
Eb|-0-0-0-0-0-0-0-0-0-0-0-0-0-0-0-0---------------------------------|

Then end with the verse riff
Tap to rate this tab
# A B C D E F G H I J K L M N O P Q R S T U V W X Y Z