Song name
# A B C D E F G H I J K L M N O P Q R S T U V W X Y Z

Modern Baseball - Tears Over Beers tab

-----------------------------------------------------------------------------
                             TEARS OVER BEERS - Modern Baseball
-----------------------------------------------------------------------------
Tuning: Half-Step Down

Verse: x4
eb|---22-222---22-222---22-222---22-222---22-222---22-222---22-222---22-222-|
Bb|---33-333---33-333---33-333---33-333---33-333---33-333---33-333---33-333-|
Gb|-------------------------------------------------------------------------|
Db|-0--------0--------2--------2--------1--------1--------0--------0--------|
Ab|-------------------------------------------------------------------------|
Eb|-------------------------------------------------------------------------|
  |                                                                         |
eb|----------2-----------------2-----------------2-----------------2--------|
Bb|-----3--------3-------3---------3--------3--------3-------3---------3----|
Gb|-2------2--------2--------2---------2-------2--------2--------2--------2-|
Db|-------------------------------------------------------------------------|
Ab|-------------------------------------------------------------------------|
Eb|-------------------------------------------------------------------------|
   *comes in on 3rd time

"Out of luck for 10 more years"
eb|-2----2-------222-222--|
Bb|-3----3-------333-333--|
Gb|-x----x----x-----------|
Db|-2----1----0-----------|
Ab|-----------------------|
Eb|-----------------------|

Repeat Verse chords

Transition to the chorus:
eb|------2~~-----------2---|
Bb|----3------------3------|
Gb|------------------------|
Db|-1---------1-0----------|
Ab|------------------------|
Eb|------------------------|

Chorus:
eb|-2-2-2-2-2-2-2-2-2-2-2-2-|--|-2-2-2-2-2-2-2-2-2-2-2-2-2-2-2-2-2-2-2--|
Bb|-3-3-3-3-3-3-3-3-3-3-3-3-|--|-3-3-3-3-3-3-3-3-3-3-3-3-3-3-3-3-3-3-3--|
Gb|-2-2-2-2-2-2-0-0-0-0-0-0-|x2|-4-4-4-2-2-2-2-2-2-0-0-0-2-2-2-2-2-2-0--|
Db|-0-0-0-2-2-2-0-0-0-0-0-0-|--|-4-4-4-2-2-2-0-0-0-0-0-0-0-0-0-2-2-2-0--|
Ab|-------0-0-0-2-2-2-2-2-2-|--|-2-2-2-0-0-0-------2-2-2-------0-0-0-2--|
Eb|-------------3-3-3-3-3-3-|--|-------------------3-3-3-------------3--|

Bridge: strum these chords 4x, then play each once 8x
eb|-2------2------2--------------|
Bb|-3------3------3--------------|
Gb|-x------x------0--------------|
Db|-0------2------0--------------|
Ab|------------------------------|
Eb|------------------------------|

Chorus:
eb|-2-2-2-2-2-2-2-2-2-2-2-2-|--|-2-2-2-2-2-2-2-2-2-2-2-2-|
Bb|-3-3-3-3-3-3-3-3-3-3-3-3-|--|-3-3-3-3-3-3-3-3-3-3-3-3-|
Gb|-2-2-2-2-2-2-0-0-0-0-0-0-|x2|-4-4-4-2-2-2-2-2-2-0-0-0-|
Db|-0-0-0-2-2-2-0-0-0-0-0-0-|--|-4-4-4-2-2-2-0-0-0-0-0-0-|
Ab|-------0-0-0-2-2-2-2-2-2-|--|-2-2-2-0-0-0-------2-2-2-|
Eb|-------------3-3-3-3-3-3-|--|-------------------3-3-3-|

eb|-2-2-2-2-2-2-2-2-2-2-2-2-|--|
Bb|-3-3-3-3-3-3-3-3-3-3-3-3-|--|
Gb|-2-2-2-2-2-2-0-0-0-0-0-0-|x4|
Db|-0-0-0-2-2-2-0-0-0-0-0-0-|--|
Ab|-------0-0-0-2-2-2-2-2-2-|--|
Eb|-------------3-3-3-3-3-3-|--| End on that G
Tap to rate this tab
# A B C D E F G H I J K L M N O P Q R S T U V W X Y Z