Song name
# A B C D E F G H I J K L M N O P Q R S T U V W X Y Z

Modern Baseball - Re-done tab

They tune in drop C# for this song. You can do drop D if you want to sing  higher.

Strumming patter is pretty simple just give it a listen

"She said lets start from the top..."
|----------------------------------------|
|----------------------------------------|
|----------------------------------------|  x9
|-7--4--5--4--4--------------------------| 
|-9--5--7--5--5--------------------------|
|-0--0--0--0--5--------------------------|

Guitar 2 comes in after 4 repeats:
|--------------------------------------|
|----7------7-----7-----7-----7--------|
|--7---7--6---6-----7-----7-----6------|  x5
|---------------7-----7-----7-----(7)--|
|--------------------------------------|
|--------------------------------------|

"But thats when i stopped to listen or care..."
|-----------------------------------------|
|-----------------------------------------|
|-----------------------------------------|
|-------------4---------------------------|
|-7--9--5--5--5---------------------------|
|-7--9--4--5--0---------------------------|

"...when I couldn't conjure words..."
|-----------------------------------------|
|-----------------------------------------|
|-----------------------------------------|
|-----------------------------------------|
|-7--9--5--5--2--5--(let ring)------------|
|-7--9--4--5--2--5------------------------|


"...in the field of conversing correctly..."

|-----------------------------------------|
|-----------------------------------------|
|--7--7--4--7-----------------------------|
|-----------5-----------------------------|
|--5--4--2--5-----------------------------|
|-----------5-----------------------------|

"But now were down to brass tax..."
|-------------------------------------------------------------|
|-------------------------------------------------------------|
|-------------------------------------------------------------|
|-2--5--2--5---x----------------------------------------------|
|-2--5--2--5---x-strum mute strings at the end of this--------|
|-2--5--2--5---x----------------------------------------------|

*During the solo do this again and keep going for "You etched holes in my brain..."
|-----------------------------------------|
|-----------------------------------------|
|--7--7--4--7-----------------------------|
|--7--7--4--7-----------------------------|
|--5--4--2--5-----------------------------|
|-----------5-----------------------------|

"I know I'm bad with expectations..."
|-----------------------------------------|
|-----------------------------------------|
|-6-----4---------------------------------|
|-7--9--5---------------------------------|
|-7--9--5---------------------------------|
|-7--9--5---------------------------------|

"They don't think we can make this..."
|-----------------------------------------|
|-----------------------------------------|
|--8--4---7-------------------------------|       *Play this until the end
|--9--5---7-------------------------------|
|--9--5---5-------------------------------|
|--9--4---0-------------------------------|
Tap to rate this tab
# A B C D E F G H I J K L M N O P Q R S T U V W X Y Z