Song name
# A B C D E F G H I J K L M N O P Q R S T U V W X Y Z

Modern Baseball - Pothole tab

Pothole by Modern Baseball
You're Gonna Miss It All

Tuning: Drop C# (C#,G#,C#,F#,A#,D#)


d#--------------------------------------------------------------------------|
A#--------------------------------------------------------------------------|
F#-----4--------4-------4--------4--------11-------11-------11-------11-----|
C#--------0--------0-------0--------0--------0--------0--------0--------0---|
G#--------------------------------------------------------------------------|
C#--5--------5-------5--------5--------12-------12-------12-------12--------|

d#--------------------------------------------------------------------------|
A#--------------------------------------------------------------------------|
F#-----4--------4--------2--------2--------2--------2--------2--------2-----|
C#--------0--------0--------0--------0--------0--------0--------0--------0--|
G#--------------------------------------------------------------------------|
C#--5--------5--------5--------5--------0--------0--------2--------2--------|

d#------------------------------------------------|
A#------------------------------------------------|
F#-----2--------2--------2--------2---------------|      When playing this part for the
C#--------0--------0--------0--------0--    <-----| second time, skip this
G#------------------------------------------------|
C#--5--------5--------5--------5------------------|

d#--------------------------------------------------------------------------|
A#--------------------------------------------------------------------------|
F#-----4--------4-------4--------4--------11-------11-------11-------11-----|
C#--------0--------0-------0--------0--------0--------0--------0--------0---|
G#--------------------------------------------------------------------------|
C#--5--------5-------5--------5--------12-------12-------12-------12--------|

d#--------------------------------------------------------------------------|
A#--------------------------------------------------------------------------|
F#-----4--------4--------2--------2--------2--------2--------2--------2-----|
C#--------0--------0--------0--------0--------0--------0--------0--------0--|
G#--------------------------------------------------------------------------|
C#--5--------5--------5--------5--------0--------0--------2--------2--------|

d#--------------------------------------------------------------------------|
A#--------------------------------------------------------------------------|
F#-----7--------9--------11-------2--------2--------2--------2--------2-----|
C#--------0--------0--------0--------0--------0--------0--------0--------0--|
G#--------------------------------------------------------------------------|
C#--9--------11-------12-------0--------5--------5--------5--------5--------| x3

d#--------------------------------------------------------------------------|
A#--------------------------------------------------------------------------|
F#-----7--------7--------6--------6--------4--------4--------4--------4-----|
C#--------0--------0--------0--------0--------0--------0--------0--------0--|
G#--------------------------------------------------------------------------|
C#--9--------9--------7--------7--------5--------5--------5--------5--------|

Start again once from the top

d#--------------------------------------|
A#--------------------------------------|
F#-----3--------3--------3--------3-----|
C#--------0--------0--------0--------0--|
G#--------------------------------------|
C#--5--------5--------5--------5--------|

d#----------------------------------------------------|
A#----------------------------------------------------|
F#-----2---------------7---------------9--------------|
C#--------0---------------0---------------0-----------|
G#----------------------------------------------------|
C#--5--------5------9--------9------11-------11-------|
                                                      | x4
d#----------------------------------------------------|
A#----------------------------------------------------|
F#-----2---------------2---------------------2--------|
C#--------0---------------0-------0-------0-----0-----|
G#----------------------------------------------------|
C#--5--------5------0--------0-------0h2-----------2--|       end on C#--5--

That's it! Good luck.
Tap to rate this tab
# A B C D E F G H I J K L M N O P Q R S T U V W X Y Z