Song name
# A B C D E F G H I J K L M N O P Q R S T U V W X Y Z

Modern Baseball - Timmy Bowers tab

-------------------------------------------------------------------------------
                             Timmy Bowers- Modern Baseball
-------------------------------------------------------------------------------
Tabbed by:
E-mail: nhelberg11@winona.edu

Tuning: Low to high: C#-G#-C#-F-G#-C# (C# Major)

Just repeat through the whole thing. I did a pretty bad job with the tab editor.
All eight notes are swung in the song.

C#|---------------------------------------------------------------------------------|
G#|---------0-------------------------------------0---------------------------------|
 F|---------------0-----------0--------------------------0-----------0--------------|
C#|----------------------------------0-------------------------------------0--------|
G#|------------------------------------------------------------2--2-----2-----------|
 C#|--5--5-----5-------5--5------5----------0--0-----0------------------------------|


C#|---------------------------------------------------------------------------------|
G#|---------0--------------------------------------0--------------------------------|
 F|---------------0---------0---------------------------0------------0--------------|
C#|---------------------------------0--------------------------------------0--------|
G#|------------------------------------------2--2-----2--------0--0-----0-----------|
 C#|--2--2----2------2--2-------2---------------------------------------------------|
Tap to rate this tab
# A B C D E F G H I J K L M N O P Q R S T U V W X Y Z