Song name
# A B C D E F G H I J K L M N O P Q R S T U V W X Y Z

Modern Baseball - Your Graduation tab

-----------------------------------
 Your Graduation ~ Modern Baseball
-----------------------------------
You're Gonna Miss It All     (2014)

Tuning: E Standard


VERSE
  (You can figure out the rhythm. I'm pretty sure it's just eighth notes)
E|--------------------|
B|--------------------|
G|--4---3---4---3--4--|
D|--4---4---4---4--4--| x2
A|--2---2---X---1--2--|
E|------2---4------0--|


CHORUS

E|-----------------|-----------------|
B|-----------------|-----------------|
G|--4---4---3---4--|--4---4---3------|
D|--4---4---4---4--|--4---4---4------| x2 
A|--X---2---2---X--|--X---2---2------|
E|--4---0---2---4--|--4---0---2------|


VERSE

E|-----------------|-----------------|
B|-----------------|-----------------|
G|--4--4-----------|--4--4-----------|
D|--4--4-----------|--4--4-----------|
A|--2--2-----------|--2--2-----------|
E|-----------------|-----------------|

E|-----------------|-----------------|-----------------|-----------------|
B|-----------------|-----------------|-----------------|-----------------|
G|-----------------|-----------------|-----------------|-----------------|
D|-----------------|-----------------|-----------------|-----------------|
A|-----------------|-----------------|-----------------|-----------------|
E|--2--------------|-----------------|-/11-------------|--9------7-------|

E|-----------------|-----------------|-----------------|-----------------|
B|-----------------|-----------------|-----------------|-----------------|
G|-----------------|-----------------|-----------------|-----------------|
D|-----------------|-----------------|-----------------|-----------------|
A|-----------------|-----------------|-----------------|-----------------|
E|--4--------------|-----------------|-/12--------11---|---------9-------|

                                      Let Ring---------|
E|-----------------|-----------------|-----------------|-----------------|
B|-----------------|-----------------|-----------------|-----------------|
G|-----------------|-----------------|-------------4---|-----X--X--X--X--|
D|-----------------|-----------------|-------1---------|-----X--X--X--X--|
A|-----------------|-----------------|-----------------|-----X--X--X--X--|
E|--6--------------|---------7-------|--0--------------|-----X--X--X--X--|


CHORUS
(Repeat first Chorus)
(Different strumming pattern)


SOLO
  (Let Ring Throughout)
E|--------------|--------------|--------------|--------------|
B|-----0-----0--|-----0-----0--|-----0-----0--|-----0-----0--|
G|-/8-----8-----|--6-----4-----|-/8-----8-----|--6-----4-----|
D|--------------|--------------|--------------|--------------|
A|--------------|--------------|--------------|--------------|
E|--------------|--------------|--------------|--------------|

E|--------------|--------------|--------------|--------------|
B|-----0-----0--|-----0-----0--|-----0-----0--|-----0-----0--|
G|-/8-----8-----|--6-----4-----|--3-----4-----|--6-----4-----|
D|--------------|--------------|--------------|--------------|
A|--------------|--------------|--------------|--------------|
E|--------------|--------------|--------------|--------------|

E|--------------|--------------|--------------|--------------|
B|-----0-----0--|-----0-----0--|-----0-----0--|-----0-----0--|
G|-/8-----8-----|--6-----3-----|--4-----3-----|--4-----3-----|
D|--------------|--------------|--------------|--------------|
A|--------------|--------------|--------------|--------------|
E|--------------|--------------|--------------|--------------|

E|--------------------|--------------------|--------------|--------------|
B|--------7-----------|--------------------|--------------|--------0-----|
G|--6--8----8---8--6--|--8--6-----8--6-----|-/8-----7-----|--4-----3b----|
D|--------------------|--------9--------9--|--------------|--------------|
A|--------------------|--------------------|--------------|--------------|
E|--------------------|--------------------|--------------|--------------|


OUTRO-CHORUS
(Repeat second Chorus)
Tap to rate this tab
# A B C D E F G H I J K L M N O P Q R S T U V W X Y Z