Song name
# A B C D E F G H I J K L M N O P Q R S T U V W X Y Z

Modern Baseball - Re-do tab

This Re-Do by Modern Baseball. They play in Eb standard!!!!!!!!!

I wanna start from the top...
E|--------------------------------------------------------------------------|
B|--------------6-----------------------6-----------------------------------|
G|-----7-----7-----7-----7-----7-----7-----7-----7--------------------------|
D|--8-----8-----------8-----8-----8-----------8-----------------------------|
A|--------------------------------------------------------------------------|
E|--------------------------------------------------------------------------|


Maybe like a do-over...
E|--------------------------------------------------|
B|--------------6-----------------------6-----------|
G|-----7-----7-----7-----7-----7-----7-----7-----7--|
D|--------------------------------------------------|
A|--5-----5-----------5-----5-----5-----------5-----|
E|--------------------------------------------------|


Replace the voices in my head..
E|--------------------------------------------------|
B|--------------3-----------------------3-----------|
G|-----3-----3-----3-----3-----3-----3-----3-----3--|
D|--1-----1-----------1-----1-----1-----------1-----|
A|--------------------------------------------------|
E|--------------------------------------------------|


With blind innocence...
E|--------------------------------------1--|
B|--------------2-----------------1-----1--|
G|-----3-----3-----3-----3-----2-----2--2--|
D|--4-----4-----------4-----3-----------3--|
A|-----------------------------------------|
E|-----------------------------------------|

I wanna complete re-do
E|--------------------|
B|--------------------|
G|--3--3--3--3--3--3--|
D|--3--3--3--3--3--3--|
A|--1--0--------3--2--|
E|--------3--2--------|

E|---------------------|
B|---------------------|
G|--3--3--3--3--3------|
D|--3--3--3--3--3------|
A|--1--0--------3------|
E|--------3--2---------|


Chorus:

E|--6--5--6--3----------|
B|--6--6--6--3--10--10--|
G|--7--7--7--3--10--10--|
D|--8--7--8--5----------|  x2
A|--8--5--8--5----------|
E|--6-----6--3--10--8---|

Maybe I could just move away...
E|--------------------|
B|--------------------|
G|--3--3--3--3--3--3--|
D|--3--3--3--3--3--3--|      x2
A|--1--0--------3--2--|
E|--------3--2--------|

Curl up in a ball and think
E|-----------------------|
B|-----------------------|
G|-----------------------|
D|--4--3--2--1--0--------|
A|-----------------4--3--|
E|-----------------------|

Chorus 2:

E|--6--5--6--3----------|
B|--6--6--6--3--10--10--|
G|--7--7--7--3--10--10--|
D|--8--7--8--5----------| x2
A|--8--5--8--5----------|
E|--6-----6--3--10--8---|

Chorus 2 Part 2:
E|--------------------|
B|--------------------|
G|--3--3--3--3--3--3--|
D|--3--3--3--3--3--3--|   x2
A|--1--0--------3--2--|
E|--------3--2--------|
Tap to rate this tab
# A B C D E F G H I J K L M N O P Q R S T U V W X Y Z